» » »

Toby Keith - Red Solo Cup Bass

Artists:  A B C D E F G H I J K L M N O P Q R S T U V W X Y Z # 

Red Solo Cup Bass

(ver. 1) Click to play this song!
Toby Keith
 Rating:
4/5 (4 votes)


 Red Solo Cup lessons Tabs too difficult? Try these video lessons and learn fast
 
                [INTRO] (*First two bars are muted strings on guitar)
  A*       A*       A        A        A        A
G:--------|--------|--------|--------|--------|--------|
D:--------|--------|--------|------4-|--------|------4-|
A:--------|--------|----7---|----7---|----7---|----7---|
E:--------|--0-2-4-|5-------|5-------|5-------|5-------|

[VERSE]
       A                   A
  Now, red Solo cup is the best receptacle
      A                     A
  For barbecues, tailgates, fairs, and festivals
      Bm                      Bm
  And you, sir, do not have a pair of testicles
     E                        A
  If you prefer drinkin' from glass

  A        A        A        A        Bm       Bm       E        A
G:--------|--------|--------|--------|--------|--------|--------|--------|
D:--------|--------|--------|--------|--------|--------|--------|--------|
A:----7---|----7---|----7---|----7---|----9---|----9---|7-------|--------|
E:5-------|5-------|5-------|5-------|7-------|7-------|----7---|5-------|

       A               A
  Hey, red Solo cup is cheap and disposable
         A                    A
  And in fourteen years, they are decomposable
      Bm                   Bm
  And unlike my home, they are not foreclosable
  E                      A
  Freddy Mac can kiss my ass      Whoo!

  A        A        A        A        Bm       Bm       E        A
G:--------|--------|--------|--------|--------|--------|--------|--------|
D:--------|--------|--------|--------|--------|--------|--------|--------|
A:----7---|----7---|----7---|----7---|----9---|----9---|7---7-5-|--------|
E:5-------|5-------|5-------|5-------|7-------|7-------|--------|5-------|

[CHORUS]
  A            A   A            A               Bm      Bm               E      E
  Red solo cup     I fill you up   Let's have a party!      Let's have a party!
              (Uh huh)
              A           A  A            A            Bm    Bm            E      E
  I love you, red Solo cup   I lift you up  Proceed to party!   Proceed to party!

  A        A        A        A        Bm       Bm       E        E
G:--------|--------|--------|--------|--------|--------|--------|--------|
D:--------|--------|--------|--------|--------|--------|--------|------4-|
A:----7---|----7---|----7---|----7---|----9---|----9---|7-------|7---7---|
E:5-------|5-------|5-------|5-------|7-------|7-------|----7---|--------|

  A        A        A        A        Bm       Bm       E        E
G:--------|--------|--------|--------|--------|--------|--------|--------|
D:--------|--------|--------|--------|--------|--------|--------|--------|
A:----7---|----7---|----7---|----7---|----9---|----9---|7-------|7-------|
E:5-------|5-------|5-------|5-------|7-------|7-------|----7---|--------|

[VERSE]
       A                        A
  Now, I really love how you're easy to stack
      A                        A
  But I really hate how you're easy to crack
             Bm                 Bm
 'Cause when beer runs down the front of my back
        E                          A
  Well, that, my friends, is quite yucky

  A        A        A        A        Bm       Bm       E        A
G:--------|--------|--------|--------|--------|--------|--------|--------|
D:--------|--------|--------|--------|--------|--------|--------|--------|
A:----7---|----7---|----7---|----7---|----9---|----9---|7-------|7-------|
E:5-------|5-------|5-------|5-------|7-------|7-------|----7---|--------|

      A                        A
  But I have to admit that the ladies get smitten
    A                        A
  Admirin' at how sharply my first name is written
     Bm                      Bm
  On you with a Sharpie when I get to hittin'
     E                   A
  On them to help me get lucky

  A        A        A        A        Bm       Bm       E        A
G:--------|--------|--------|--------|--------|--------|--------|--------|
D:--------|--------|--------|--------|--------|--------|--------|--------|
A:----7---|----7---|----7---|----7---|----9---|----9---|7-------|--------|
E:5-------|5-------|5-------|5-------|7-------|7-------|----7---|5-------|

[CHORUS]
  A            A   A            A               Bm      Bm               E      E
  Red solo cup     I fill you up   Let's have a party!      Let's have a party!
              A           A  A            A            Bm    Bm            E      E
  I love you, red Solo cup   I lift you up  Proceed to party!   Proceed to party!
                          (What)                            (Party)
  A        A        A        A        Bm       Bm       E        E
G:--------|--------|--------|--------|--------|--------|--------|--------|
D:--------|--------|--------|------4-|--------|--------|--------|------4-|
A:----7---|----7---|----7---|----7---|----9---|----9---|7-------|7---7---|
E:5-------|5-------|5-------|5-------|7-------|7-------|----7---|--------|

  A        A        A        A        Bm       Bm       E        E
G:--------|--------|--------|--------|--------|--------|--------|--------|
D:--------|--------|--------|--------|--------|--------|--------|--------|
A:----7---|----7---|----7---|----7---|----9---|----9---|7-------|------2-|
E:5-------|5-------|5-------|5-------|7-------|7-------|----7---|0---0---|

[VERSE]
            A                         A
  Now, I've seen you in blue and I've seen you in yellow
                A                     A
  But only you, red, will do for this fellow
        Bm                Bm
 'Cause you are the Abbot to my Costello
      E                       A
  And you are the Fruit to my Loom

  A        A        A        A        Bm       Bm       E        A
G:--------|--------|--------|--------|--------|--------|--------|--------|
D:--------|--------|--------|--------|--------|--------|--------|--------|
A:----7---|----7---|----7---|----7---|----9---|----9---|7-------|--------|
E:5-------|5-------|5-------|5-------|7-------|7-------|----7---|5-------|

  A                    A
  Red solo cup, you're more than just plastic
         A                         A
  You're more than amazing, you're more than fantastic
      Bm                           Bm
  And believe me that I am not the least bit sarcastic
       E                 N/C
  When I look at you and say

  A        A        A        A        Bm       Bm       E        N/C
G:--------|--------|--------|--------|--------|--------|--------|--------|
D:--------|--------|--------|--------|--------|--------|--------|--------|
A:----7---|----7---|----7---|----7---|----9---|----9---|7---9---|7-------|
E:5-------|5-------|5-------|5-------|7-------|7-------|--------|--------|


[BRIDGE] (spoken)
  Red Solo cup, you're not just a cup
 (No! No! No! God, no! )
  You're my (Friend?) friend
 (Friend, Friend, Friend, Life-long)
  Thank you ... For being my friend    (three-beat intro by Bass into new key)

[CHORUS]
  B            B   B            B               C#m     C#m              F#     F#
  Red solo cup     I fill you up   Let's have a party!      Let's have a party!
              B           B  B            B            C#m   C#m           F#    F#
  I love you, red Solo cup   I lift you up  Proceed to party!   Proceed to party!

  B        B        B        B        C#m      C#m      F#       F#
G:--------|--------|--------|--------|--------|--------|--------|--------|
D:----4---|----4---|----4---|----4---|----6---|----6---|4-------|4---4-6-|
A:2-------|2-------|2-------|2-------|4-------|4-------|----4---|--------|
E:--------|--------|--------|--------|--------|--------|--------|--------|

  B        B        B        B        C#m      C#m      F#       F#
G:--------|--------|--------|--------|--------|--------|--------|--------|
D:----4---|----4---|----4---|----4---|----6---|----6---|4-------|4---4-6-|
A:2-------|2-------|2-------|2-------|4-------|4-------|----4---|--------|
E:--------|--------|--------|--------|--------|--------|--------|--------|

[CODA]
  B            B    B            B               C#m           C#m        F#     F#
               Red Solo                           Let's have a party!       Let's...
 (Red solo cup)   (I fill you up)  (Let's have a party!)    (Let's have a party!)

  B        B        B        B        C#m      C#m      F#       F#
G:--------|--------|--------|--------|--------|--------|--------|--------|
D:----4---|----4---|----4---|----4---|----6---|----6---|4-------|4---4-6-|
A:2-------|2-------|2-------|2-------|4-------|4-------|----4---|--------|
E:--------|--------|--------|--------|--------|--------|--------|--------|

  B           B             B             B             C#m   C#m          F#     F#
              Ohh, Red Solo cup            Let's have a party!  Proceed to party!
 (Red Solo cup)            (I lift you up)(Let's have a party!)(Proceed to party!)

  B        B        B        B        C#m      C#m      F#       F#
G:--------|--------|--------|--------|--------|--------|--------|--------|
D:----4---|----4---|----4---|----4---|----6---|----6---|4-------|4---4-6-|
A:2-------|2-------|2-------|2-------|4-------|4-------|----4---|--------|
E:--------|--------|--------|--------|--------|--------|--------|--------|

  B        B        B        B        C#m      C#m      F#       F#
             Bow oh doh        Oh boh boh       Bow ooh doo         Ba do do da
          (Solo cup!)       (Solo cup!)       (Solo cup!)       (Solo cup!)

  B        B        B        B        C#m      C#m      F#       F#
G:--------|--------|--------|--------|--------|--------|--------|--------|
D:----4---|----4---|----4---|----4---|----6---|----6---|4-------|4---4-6-|
A:2-------|2-------|2-------|2-------|4-------|4-------|----4---|--------|
E:--------|--------|--------|--------|--------|--------|--------|--------|

  B        B        B        B        C#m      C#m       F#       F#      B
                             Be da ba          Boo be da ba
          (Solo cup!)       (Solo cup!)       (Solo cup!)        (Solo cup!)

  B        B        B        B        C#m      C#m      F#       F#       B
G:------4-|--------|------4-|--------|--------|--------|--------|3-------|4~~~~~~~|
D:--1-4---|--------|--1-4---|--------|----6---|----6---|4---6---|--------|--------|
A:2-------|--------|2-------|--------|4-------|4-------|--------|--------|--------|
E:--------|--------|--------|--------|--------|--------|--------|--------|--------|

Dec 9, 2011
            
Submit corrections



        Red Solo Cup lessons Hard to play? Try these video lessons and learn fast Red Solo Cup lessons
        
↑ Back to top | Tablatures and chords for acoustic guitar and electric guitar, ukulele, drums are parodies/interpretations of the original songs. You may use it for private study, scholarship, research or language learning purposes only