» » »

Tism - Everyone Else Has Had More Sex Than Me Tabs

Artists:  A B C D E F G H I J K L M N O P Q R S T U V W X Y Z # 

Everyone Else Has Had More Sex Than Me Tabs

(ver. 2) Click to play this song!
Tism
 Rating:
4/5 (7 votes)


 Everyone Else Has Had More Sex Than Me lessons Tabs too difficult? Try these video lessons and learn fast
 
                -------------------------------------------------------------------------------
                             More sex than me- tism
-------------------------------------------------------------------------------

Tuning:eadgbe

e|----------1--0-------------------------------------------------------------|
B|-------3--------3--1--3/5/1--2---------------------------------------------|
G|-0--3---------------------------2------------------------------------------|
D|---------------------------------------------------------------------------|
A|---------------------------------------------------------------------------|
E|---------------------------------------------------------------------------|

e|----------1--0----------------------------------------------------------------|
B|-------3--------3--1--3/5/1--2------------------------------------------------|
G|-0--3---------------------------2---------------------------------------------|
D|------------------------------------------------------------------------------|
A|------------------------------------------------------------------------------|
E|------------------------------------------------------------------------------|

e|-6-6-6--5-5-5--3-3-3--1--3/5/0--------------------------------------------------|
B|-6-6-6--5-5-5--3-3-3--1--3/5/0--2-----------------------------------------------|
G|-----------------------------------2--------------------------------------------|
D|--------------------------------------------------------------------------------|
A|--------------------------------------------------------------------------------|
E|--------------------------------------------------------------------------------|

e|----1--3--6--5--3--1--3/5/0------------------------------------------------|
B|----1--3--6--5--3--1--3/5/0--2---------------------------------------------|
G|-0------------------------------2------------------------------------------|
D|---------------------------------------------------------------------------|
A|---------------------------------------------------------------------------|
E|---------------------------------------------------------------------------|

| /  slide up
| \  slide down
| h  hammer-on
| p  pull-off
| ~  vibrato
| +  harmonic
| x  Mute note
===============================================================================
            
Submit corrections



        Everyone Else Has Had More Sex Than Me lessons Hard to play? Try these video lessons and learn fast Everyone Else Has Had More Sex Than Me lessons
        
↑ Back to top | Tablatures and chords for acoustic guitar and electric guitar, ukulele, drums are parodies/interpretations of the original songs. You may use it for private study, scholarship, research or language learning purposes only