» » »

Thousand Foot Krutch - Let The Sparks Fly Bass

Artists:  A B C D E F G H I J K L M N O P Q R S T U V W X Y Z # 

Let The Sparks Fly Bass

(ver. 1) Click to play this song!
Thousand Foot Krutch
 Rating:
4/5 (4 votes)


 Let The Sparks Fly lessons Tabs too difficult? Try these video lessons and learn fast
 
                -------------------------------------------------------------------------------
                           LET THE SPARKS FLY - Thousand Foot Krutch.
-------------------------------------------------------------------------------






Tuning: Drop D.





Intro

G|--------------------------------------------------------|
D|--------------------------------------------------------|
A|--------------------------------------------------------|
D|--0-6-5-0-3-0--0-6-5-0-3-5--0-6-5-0-3-0--0--3--0-2-3-2--|



Verse

G|--------------------------------------------------------|
D|--------------------------------------------------------|
A|--------------------------------------------------------|  [x2]
D|--0-6-5-0-3-0--0-6-5-0-3-5--0-6-5-0-3-0--0--3--0-2-3-2--|

G|-------------------------------------------------|
D|-------------------------------------------------|
A|-------------------------------------------------|
D|--0-6-000-6--0-5-000-5--0-3-000-3--0-2-00-3-2-0--|

G|---------------------------------------------------|
D|---------------------------------------------------|
A|---------------------------------------------------|
D|--0-6-000-6--0-5-000-5--0-3-000-3--0-2-00-3-2-0-0--|

G|---------------------------------------------------|
D|---------------------------------------------------|
A|---------------------------------------------------|
D|--0-6-0-0-6--0-5-0-0-5--0-3-0-0-3--0-2-00-3-2-0-0--|

G|-----------------------------------------------|
D|-----------------------------------------------|
A|-----------------------------------------------|
D|--0-6-0-0-6--0-5-0-0-5--0-3-0-0-3--0-2-00-3-2--|



Chorus

G|--------------|
D|--------------|
A|--------------|   [x2]
D|--8--0--3--5--|



Bridge

G|--------------------------------------------------------|
D|--------------------------------------------------------|
A|--------------------------------------------------------|   [x2]
D|--0-6-5-0-3-0--0-6-5-0-3-5--0-6-5-0-3-0--0--3--0-2-3-2--|



Verse 

G|----------------------5------------------------------|
D|---------3-3------------3----------------------------|
A|--5-3--0------5-3-3h5----------------3---------------|
D|---------------------------5-3-333-5----3-0-000-3-5--|

G|-----------------------------------------------------|
D|---------3-3----------3------------------------------|
A|--5-3--0------5-3-3h5---5------------3---------------|
D|---------------------------5-3-3-3-5----3-0-003-3-0--|

G|---------------------------------------------------|
D|---------------------------------------------------|
A|---------------------------------------------------|
D|--0-6-0-0-6--0-5-0-0-5--0-3-0-0-3--0-2-00-3-2-0-0--|

G|-----------------------------------------------|
D|-----------------------------------------------|
A|-----------------------------------------------|
D|--0-6-0-0-6--0-5-0-0-5--0-3-0-0-3--0-2-00-3-2--|



Chorus

G|--------------|
D|--------------|
A|--------------|   [x2]
D|--8--0--3--5--|



Bridge

G|-----------------|
D|-----------------|
A|-----------------|
D|--0--3--0-2-3-2--|

G|--------------------------------------------------------|
D|--------------------------------------------------------|
A|--------------------------------------------------------|
D|--0-6-5-0-3-0--0-6-5-0-3-5--0-6-5-0-3-0--0--3--0-2-3-2--|

G|-------------------------------------------------|
D|-------------------------------------------------|
A|-------------------------------------------------|
D|--0-6-000-6--0-5-000-5--0-3-000-3--0-2-00-3-2-0--|

G|-------------------------------------------------|
D|-------------------------------------------------|
A|-------------------------------------------------|
D|--0-6-000-6--0-5-000-5--0-3-000-3--0-2-00-3-2-0--|



Chorus

G|--------------|
D|--------------|
A|--------------|   [x4]
D|--8--0--3--5--|



Outro

G|--------------------------------------------------------|
D|--------------------------------------------------------|
A|--------------------------------------------------------|
D|--0-6-5-0-3-0--0-6-5-0-3-5--0-6-5-0-3-0--0--3--0-2-3-2--|

G|-----------------------------------------------|
D|-----------------------------------------------|
A|-----------------------------------------------|
D|--0-6-5-0-3-0--0-6-5-0-3-5--0-6-5-0-3-0--0--3--|





| /  slide up
| \  slide down
| h  hammer-on
| p  pull-off
| ~  vibrato
| +  harmonic
| x  Mute note
===============================================================================
            
Submit corrections



        Let The Sparks Fly lessons Hard to play? Try these video lessons and learn fast Let The Sparks Fly lessons
        
↑ Back to top | Tablatures and chords for acoustic guitar and electric guitar, ukulele, drums are parodies/interpretations of the original songs. You may use it for private study, scholarship, research or language learning purposes only