» » »

The War On Drugs - An Ocean In Between The Waves Tabs

Artists:  A B C D E F G H I J K L M N O P Q R S T U V W X Y Z # 

An Ocean In Between The Waves Tabs

(ver. 1) Click to play this song!
The War On Drugs
 Rating:
4/5 (4 votes)

 An Ocean In Between The Waves  lessons Tabs too difficult? Try these video lessons and learn fast
 
                FIRST SOLO ONLY.
2:34 - 3:01


e|-----------------3---3---3/5-5-5-3-0-3-3-3-3-h5-5/7-5-3-0-5-3-0-0-5-5------|
B|-----3-3-3-3-3-3---3---3---------------------------------------------------|
G|-0h2-----------------------------------------------------------------------|
D|---------------------------------------------------------------------------|
A|---------------------------------------------------------------------------|
E|---------------------------------------------------------------------------|

e|-10-10-10-12-----------10---10---10----------------------------------------|
B|-------------10-10-12----12---12---12-12-10-8-10-8-10-8-5-5-5--------------|
G|---------------------------------------------------------------------------|
D|---------------------------------------------------------------------------|
A|---------------------------------------------------------------------------|
E|---------------------------------------------------------------------------|

e|--------3-0-3-5-5-5-3-5-7--7-5-3-0----3------------------------------------|
B|--3h5-----------------------------3h5--5--3-5-------------3-5-3---3---3~~~~|
G|------------------------------------------------2-4-4-4-4-------4---4------|
D|---------------------------------------------------------------------------|
A|---------------------------------------------------------------------------|
E|---------------------------------------------------------------------------|            
Submit corrections


        An Ocean In Between The Waves  lessons Hard to play? Try these video lessons and learn fast An Ocean In Between The Waves  lessons
        
↑ Back to top | Tablatures and chords for acoustic guitar and electric guitar, ukulele, drums are parodies/interpretations of the original songs. You may use it for private study, scholarship, research or language learning purposes only