» » »

The View - Superstar Tradesman Bass

Artists:  A B C D E F G H I J K L M N O P Q R S T U V W X Y Z # 

Superstar Tradesman Bass

(ver. 3) Click to play this song!
The View
 Rating:
4/5 (4 votes)


 Superstar Tradesman lessons Tabs too difficult? Try these video lessons and learn fast
 
                ----------------------------------------------------------------------------
			    Superstar Tradesman - The View
----------------------------------------------------------------------------


Tuning:EADG

Intro/verse
superstar tradesman stand at the bar
G|--------------------------------------------------------------------------|
D|--------------------------------------------------------------------------|
A|-33333333------------------33333333---------------------------------------|
E|----------55555555-1111111------------------------------------------------|

Pre Chorus
Youl have a house in the...
G|--------------------------------------------------------------------------|
D|--------------------------------------------------------------------------|
A|---4--8--5--7------2--5--3--5---------------------------------------------|
E|-5---------------3--------------------------------------------------------|

never been played before and never will...

G|--------------------------------------------------------------------------|
D|--------------------------------------------------------------------------|
A|-33333333-------------------33333333--------------------------------------|
E|----------55555555-11111111-----------------------------------------------|

The weather is sunny...

G|--------------------------------------------------------------------------|
D|--------------------------------------------------------------------------|
A|--------------------------------------------------------------------------|
E|-55555555-33333333--------------------------------------------------------|

To keep me sane...

G|--------------------------------------------------------------------------|
D|--------------------------------------------------------------------------|
A|-33333333-------------------33333333--------------------------------------|
E|----------55555555-11111111-----------------------------------------------|

I don't want money...

G|--------------------------------------------------------------------------|
D|--------------------------------------------------------------------------|
A|--------------------------------------------------------------------------|
E|-55555555-33333333--------------------------------------------------------|

G|--------------------------------------------------------------------------|
D|--------------------------------------------------------------------------|
A|-33333333-------------------33333333--------------------------------------|
E|----------55555555-11111111-----------------------------------------------|

What would you do?...

G|--------------------------------------------------------------------------|
D|--------------------------------------------------------------------------|
A|--------------------------------------------------------------------------|
E|-55-3---------------------------------------------------------------------|

to sail awaaaay...

G|--------------------------------------------------------------------------|
D|--------------------------------------------------------------------------|
A|-33333333------------------33333333---------------------------------------|
E|---------55555555-11111111------------------------------------------------|

Superstar tradesman stand at the bar...

G|--------------------------------------------------------------------------|
D|--------------------------------------------------------------------------|
A|--------------------------------------------------------------------------|
E|-55-3---------------------------------------------------------------------|

Youl have a house in the...

G|--------------------------------------------------------------------------|
D|--------------------------------------------------------------------------|
A|---4--8--5--7-----2--5--3--5----------------------------------------------|
E|-5--------------3---------------------------------------------------------|

Never been plaaaayed before...

G|--------------------------------------------------------------------------|
D|--------------------------------------------------------------------------|
A|-33333333--------------------33333333-------------------------------------|
E|-----------55555555-11111111----------------------------------------------|

Outro

G|--------------------------------------------------------------------------|
D|--------------------------------------------------------------------------|
A|-3------------------------------------------------------------------------|
E|---5-1-1-1-1-1/-----------------------------------------------------------|
            
Submit corrections



        Superstar Tradesman lessons Hard to play? Try these video lessons and learn fast Superstar Tradesman lessons
        
↑ Back to top | Tablatures and chords for acoustic guitar and electric guitar, ukulele, drums are parodies/interpretations of the original songs. You may use it for private study, scholarship, research or language learning purposes only