» » »

The View - Skag Trendy Bass

Artists:  A B C D E F G H I J K L M N O P Q R S T U V W X Y Z # 

Skag Trendy Bass

(ver. 3) Click to play this song!
The View
 Rating:
4/5 (4 votes)


 Skag Trendy lessons Tabs too difficult? Try these video lessons and learn fast
 
                well i saw the othere tabs on this songs, they ere good but i just wanna modify them :D 
you dont mind :P

main riff
|---9-------------------------|
|-----7-9-7-6-----7-x---9-7---|
|-7-----------7-------------9-| x15
|---------------5-----7-------|

last part of that riff
|---9---------------------|
|----7--9-7-6-----7-x---9-|
|-7-----------7-----------|
|---------------5-----7---|

bridge
|---------------------------------|
|---9-7-5---9-7-5-----------------|
|-------------------9-7-5---9-7-5-|
|-7-------7-------2-------2-------|

|---------------------------------------------|
|---9-7-5---9-7-5-----------444-222-----------|
|-------------------9-7-5-----------2h4p2-----|
|-7-------7-------2-------2---------------4-2-|

|-----------------------------------|
|---9-7-5---9-7,5---------0000------|
|------------------------------2222-|
|-7-------7---------2-2-2-----------|

chorus
|-----------------------|
|-----------------------|
|-77777-6-5-4-----------|
|-------------5555-7777-|
                              those two rifss x4
|--------------------------|
|--------------------------|
|-77777-6-5-4--------------|
|-------------5555-7-5-4-3-|

back to main riff
|---9-------------------------|
|-----7-9-7-6-----7-x---9-7---|
|-7-----------7-------------9-| x4
|---------------5-----7-------|

|---9---------------------|
|----7--9-7-6-----7-x---9-|
|-7-----------7-----------|
|---------------5-----7---|

back to bridge
|---------------------------------|
|---9-7-5---9-7-5-----------------|
|-------------------9-7-5---9-7-5-|
|-7-------7-------2-------2-------|

|---------------------------------|
|---9-7-5---9-7-5-------------7---|
|-------------------9-7-5---9---9-|
|-7-------7-------2-------2-------|

|-----------------------------------|
|---9-7-5---9-7,5---------0000------|
|------------------------------2222-|
|-7-------7---------2-2-2-----------|

back to chorus
|-----------------------|
|-----------------------|
|-77777-6-5-4-----------|
|-------------5555-7777-|
                              repeat those two rifss x2
|--------------------------|
|--------------------------|
|-77777-6-5-4--------------|
|-------------5555-7-5-4-3-|

|-----------------------|
|-----------------------|
|-77777-6-5-4-----------|
|-------------5555-7777-|

|-------------------------|
|-----------------------5-|
|-7777-6-5-4--------5-7---|
|------------5555-7-------|

|--------------------------|
|--------------------------|
|-77777-6-5-4--------------|
|-------------5555-7-5-4-3-|

|-----------------------|
|-----------------------|
|-77777-6-5-4-----------|
|-------------5555-7777-|
                               repeat those two rifss x3
|--------------------------|
|--------------------------|
|-77777-6-5-4--------------|
|-------------5555-7-5-4-3-|

end part
|-----------------7-9-7---------------9-|
|-----5---5-7-8-9-------9-8-7-----------|
|-777---7---------------------9-8-7-7---|
|---------------------------------------|

meh well fun :D

A.J
            
Submit corrections



        Skag Trendy lessons Hard to play? Try these video lessons and learn fast Skag Trendy lessons
        
↑ Back to top | Tablatures and chords for acoustic guitar and electric guitar, ukulele, drums are parodies/interpretations of the original songs. You may use it for private study, scholarship, research or language learning purposes only