» » »

The View - Face For The Radio Tabs

Artists:  A B C D E F G H I J K L M N O P Q R S T U V W X Y Z # 

Face For The Radio Tabs

(ver. 1) Click to play this song!
The View
 Rating:
4.5/5 (8 votes)


 Face For The Radio lessons Tabs too difficult? Try these video lessons and learn fast
 
                Here it is;

The solo starts around 2:21. The 'shhh' sections are quite vague but fairly accurate...

Listen to the song for the rhythms, dynamics and speed of the slides etc...


					bu     bu then r
    E--------------------------------------12---------------------|
    B-----------------------------10---12^----12^r---10-----------|
    G----------------------9--11------------------------11--9-----|
    D----9--7--9--7---9/11----------------------------------------|
    A-------------------------------------------------------------|
    E-------------------------------------------------------------|


							bu half and hold (13)
    E--------------------12----12---10--9--------------------------|
    B---------10---12/14----14-------------12--10--12---12^-12^-12-|r
    G---9h11-------------------------------------------------------|
    D--------------------------------------------------------------|
    A--------------------------------------------------------------|
    E--------------------------------------------------------------|


    E-------------------------------------------------------------|
    B---10----------------10-13p10--------------------------------|
    G------11--9----9h11------------11-9h11-----------------------|
    D------------------------------------------11--9--------------|
    A-------------------------------------------------12----------|
    E-------------------------------------------------------------|


                    /----------shhh--------------------------------|
    E--------------------------------------------------------------|
    B--------10--12--10--------------10--10--12--10----------------|
    G---9h11-----------------------------------------11--9---------|
    D--------------------------------------------------------------|
    A--------------------------------------------------------------|
    E--------------------------------------------------------------|


2:39  -----------------------\-------------------------------------|
    E--------------------------------------------------------------|
    B----------12--10--12--12/14-----------------------------------|
    G---9--11------------------------------------------------------|
    D--------------------------------------------------------------|
    A--------------------------------------------------------------|
    E--------------------------------------------------------------|


2:49   /----shhh--------------------------------------------------|
    E-------------------------------------------------------------|
    B----------10----------12/14--15--15p14--12-------------------|
    G---9--11------11--9------------------------14-14-------------|
    D-------------------------------------------------------------|
    A-------------------------------------------------------------|
    E-------------------------------------------------------------|

 2:53   ----------------------------------------------------------\-|
    E-----------11/12------------12------------------12-------------|
    B---14--15-----------14--15----------12/14--15-------15-15------|
    G-----------------------------------------------------------14--|
    D---------------------------------------------------------------|
    A---------------------------------------------------------------|
    E---------------------------------------------------------------|

Key:

bu  =  Bend Up (whole step unless stated above)
^  =   "
r  =  Release
h  =  Hammer-on
p  =  Pull-off
/  =  Slide up
\  =  Slide down

Hope this helps. ;-)

Cheers mi dears... x


\m/
            
Submit corrections



        Face For The Radio lessons Hard to play? Try these video lessons and learn fast Face For The Radio lessons
        
↑ Back to top | Tablatures and chords for acoustic guitar and electric guitar, ukulele, drums are parodies/interpretations of the original songs. You may use it for private study, scholarship, research or language learning purposes only