» » »

The Red Jumpsuit Apparatus - Love Seat Bass

Artists:  A B C D E F G H I J K L M N O P Q R S T U V W X Y Z # 

Love Seat Bass

(ver. 2) Click to play this song!
The Red Jumpsuit Apparatus
 Rating:
4/5 (4 votes)

 Love Seat lessons Tabs too difficult? Try these video lessons and learn fast
 
                intro/verse 1
G|------------------|
D|------------------|
G|-5555-5\2222-2/9\-|
D|------------------| x6

bridge
G|-----------------|    |-----|
D|-----------------|    |-----|
G|-----------------|    |-----|
D|-3333-33/5555-55-| x2 |-5-5-|

chorus
G|---------------------------------------------------|
D|----5-----7-5----5---------------------------------|
G|-5~---555-----4~---444–4(n)5-4---------------------|
D|-----------------------------3-3-3-333~/5-5-555555-| x2

verse 2
G|------------------|
D|------------------|
G|-5555-5\2222-2/9\-|
D|------------------| x4

{bridge}
[chorus]
	
G|-----------------------------------------------------------------------|
D|-----------------------------------------------------------------------|
G|-------55-55-5-5\----------------------55-55-5-5-----------------------|
D|-77-77------------22-22-22-22-2-2/-77-77-----------2-2-2~2-5-5-5-55555-|

[chorus]

outro
G|--------------------------------------------------------------|
D|---------------------------------5----------------------------|
G|-5555555555555-7-5~4444444444444-–-45---------------9-7-5-7-5-|
D|--------------------------------------3(x13)-5(x13)-----------|

G|------|
D|------|
G|-(5~)-|
D|------|
            
Submit corrections


        Love Seat lessons Hard to play? Try these video lessons and learn fast Love Seat lessons
        
↑ Back to top | Tablatures and chords for acoustic guitar and electric guitar, ukulele, drums are parodies/interpretations of the original songs. You may use it for private study, scholarship, research or language learning purposes only