» » »

The Red Jumpsuit Apparatus - Love Seat Bass

Artists:  A B C D E F G H I J K L M N O P Q R S T U V W X Y Z # 

Love Seat Bass

(ver. 1) Click to play this song!
The Red Jumpsuit Apparatus
 Rating:
4/5 (4 votes)

 Love Seat lessons Tabs too difficult? Try these video lessons and learn fast
 
                
Intro & verse 6x

G|-----------------|----------------| 
D|-----------------|----------------| 
A|-----------------|----------------| 
D|--0-0--2-0--0/3--|--3-3--5-3--3/5-| 

pre-Chorus
G|-----------------------------------| 
D|-----------------------------------| 
A|-----------------------------------| 
D|-4--4-4--4--6-6--6--4-4--4-6-6-6---| 

Chorus
G|------------------------------------------------| 
D|------------------------------------------------| 
A|--4-4-4h6\3-3-3-3-33----------------------------| 
D|--------------------3-3-3-3-33--5-5-5555--777---| 

G|------------------------------------------| 
D|------------------------------------------| 
A|--4-4-4h6\3-3-3-3-33----------------------| 
D|--------------------3-3-3-3-33--5-5-5-5-5-| 

Verse 4x

pre-chorus
G|------------------------------------| 
D|------------------------------------| 
A|------------------------------------| 
D|-4--4-4--4--6-6--6--4-4--4-6-6-6-6--| 

Bridge
G|---------------------------|----------------------------------| 
D|---------------------------|----------------------------------| 
A|-11-11-144-44-4------------|-11-11-144-4----------------------| 
D|---------------44-44-466-66|-------------4-4-4---6-6-666666---| 

Chorusx1

Outrox2
G|------------------------------------------------------------------------| 
D|------------------------------------------------------------3-5-3-------| 
A|-444444444444h6\3-33333333333333---------------------------------3-5-3~-|
D|--------------------------------333333333333333--55555555555------------| 

pls r8 it?
            
Submit corrections


        Love Seat lessons Hard to play? Try these video lessons and learn fast Love Seat lessons
        
↑ Back to top | Tablatures and chords for acoustic guitar and electric guitar, ukulele, drums are parodies/interpretations of the original songs. You may use it for private study, scholarship, research or language learning purposes only