» » »

The Red Jumpsuit Apparatus - Love Seat Tabs

Artists:  A B C D E F G H I J K L M N O P Q R S T U V W X Y Z # 

Love Seat Tabs

(ver. 1) Click to play this song!
The Red Jumpsuit Apparatus
 Rating:
4/5 (4 votes)

 Love Seat lessons Tabs too difficult? Try these video lessons and learn fast
 
                
Song Title: Love Seat
Album:	    The Red Jumpsuit Apparatus



first tab ko po ito...paki rate na lng poh pls...well any comment e-mail
FRIENDSTER

LEGENDS
h - hammer
p - pull off
x - dead string
. - palm mute
~ - let it ring

INTRO:

G|----------------------------|
D|----------------------------| (2x)
A|------------3--0-0-0-0--0-7-|
D|-0-0-0-0--0-----------------|

VERSE:

  My love's like an arm chair
  It's inclined to recline and sweep you off of your feet
  My structure is perfect
  There's no flaw in design
  A decent buy for you

G|----------------------------|
D|----------------------------| (4x)
A|------------3--0-0-0-0--0-7-|
D|-0-0-0-0--0-----------------|

REFRAIN:

  There's no rest for a luxury
  There's no rest for me

e|-----------------------------------|
B|-------------------------------[p]-|
G|-------------------------------[a]-|
D|-4-4---4-6-6---6-4-4---4-6-6-6-[u]-|
A|-4-4---4-6-6---6-4-4---4-6-6-6-[s]-|
D|-4-4---4-6-6---6-4-4---4-6-6-6-[e]-|

cHORUS:

  Her eyes are watering
  I said we're better off this way
  Things change
  It's happening everyday
  He'll come and take my place and show you things that I just couldn't face
  We'll sit and sing a song of what we did wrong.


e|--------------------------------------|-------------------------------------|
B|--------------------------------------|-------------------------------------|
G|-66666666-----------------------------|-66666666----------------------------|
D|-66666666-66666666-44444444-66x66x66x-|-66666666-66666666-44444444-66666666-|
A|-44444444-66666666-44444444-66x66x66x-|-44444444-66666666-44444444-66666666-|
D|----------66666666-44444444-66x66x66x-|----------66666666-44444444-66666666-|


VERSE2:
   
  Now that I'm used up and my arms start to fade
  You can pay to upgrade or you can replace me
  Finalize my demise
  A new surprise for you

G|----------------------------|
D|----------------------------| (4x)
A|------------3--0-0-0-0--0-7-|
D|-0-0-0-0--0-----------------|

              eto ung may part na may lead..ndi ako sure kung
               tama ung pa ka rinig ko...

[LEAD]

e|-----8---------8---------8---------8-------|
B|-6-6---6h7p6-6---6h7p6-6---6h7p6-6---6h7p6-|
G|-------------------------------------------|
D|-------------------------------------------|
A|-------------------------------------------|
D|-------------------------------------------|

(Repeat REFRAIN)
(Repeat CHORUS)

BRIDGE:

  Don't tell me the worst is over now
  Don't tell me what I can see with my eyes
  Don't tell me the worst is over now
  Bend my will again then mend it straight

e|----------------------------|------------------------------------|
B|----------------------------|--------------------------------[p]-|
G|-33-33-366-66-6-------------|-33-33-366-6--------------------[a]-|
D|-33-33-366-66-644-44-466-66-|-33-33-344-6-4-4-4---6-6-666666-[u]-|
A|-11-11-144-44-444-44-466-66-|-11-11-144-4-4-4-4---6-6-666666-[s]-|
D|---------------44-44-466-66-|-------------4-4-4---6-6-666666-[e]-|
                                                         .....
(repeat CHORUS)

  And maybe I'll regret you  \
  And maybe I'll regret you   \
  And maybe I'll regret you    > 2x
  It's all in my mind         /
  It's all in my mind        /

e|-------------------------------------|
B|-------------------------------------|
G|-66666666----------------------------|
D|-66666666-66666666-44444444-66666666-| (2x)
A|-44444444-66666666-44444444-66666666-|
D|----------66666666-44444444-66666666-|

E|----|
B|----|
G|-6~-|
D|-6~-|
A|-4~-|
D|----|

	NOTE: PAKINGGAN NYO UNG SONG PRA MAY TIMING...

"Love Seat"

VERSE 1:
My love's like an arm chair
It's inclined to recline and sweep you off of your feet
My structure is perfect
There's no flaw in design
A decent buy for you

REFRAIN:
There's no rest for a luxury
There's no rest for me

cHORUS:
Her eyes are watering
I said we're better off this way
Things change
It's happening everyday
He'll come and take my place and show you things that I just couldn't face
We'll sit and sing a song of what we did wrong.

VERSE 2:
Now that I'm used up and my arms start to fade
You can pay to upgrade or you can replace me
Finalize my demise
A new surprise for you

REFRAIN:
There's no rest for a luxury
There's no rest for me

cHORUS:
Her eyes are watering
I said we're better off this way
Things change
It's happening everyday
He'll come and take my place and show you things that I just couldn't face
We'll sit and sing a song of what we did wrong.

BRIDGE:
Don't tell me the worst is over now
Don't tell me what I can see with my eyes
Don't tell me the worst is over now
Bend my will again then mend it straight

CHORUS:
Her eyes are watering
I said we're better off this way
Things change
It's happening everyday
He'll come and take my place and show you things that I just couldn't face
We'll sit and sing a song of what we did wrong.

And maybe I'll regret you
And maybe I'll regret you
And maybe I'll regret you
It's all in my mind
It's all in my mind

And maybe I'll regret you
And maybe I'll regret you
And maybe I'll regret you
It's all in my mind
It's all in my mind


OO NGA PLA BINABATI KO ANG MGA KA IBIGAN KO SA CAVITE SA PARKLANE
STARRING:
	ANGELO ARMADA
	JONATHAN ARIZALA
	VON LOUIE ECAL
at sa dalawa naming vocalist
STARRING:
	RAY   taga salitran
	DON-DON    misteryoso...indi ko pa lubos kilala eh.
            
Submit corrections


        Love Seat lessons Hard to play? Try these video lessons and learn fast Love Seat lessons
        
↑ Back to top | Tablatures and chords for acoustic guitar and electric guitar, ukulele, drums are parodies/interpretations of the original songs. You may use it for private study, scholarship, research or language learning purposes only