» » »

The Raconteurs - Steady As She Goes Bass

Artists:  A B C D E F G H I J K L M N O P Q R S T U V W X Y Z # 

Steady As She Goes Bass

(ver. 3) Click to play this song!
The Raconteurs
 Rating:
4/5 (4 votes)


 Steady As She Goes lessons Tabs too difficult? Try these video lessons and learn fast
 
                G|--------------------------------------------------------------------------|
D|--------------------------------------------------------------------------|X3
A|--2----1-------2----0----0------------------------------------------------|
E|----------2-------------------0--2----------------------------------------|


G|--------------------------------------------------------------------------|
D|--------------------------------------------------------------------------|
A|--2----1-------2----0----0------------------------------------------------|
E|----------2-------------------0--2--4--5----------------------------------|


G|--------------------------------------------------------------------------|
D|--------------------------------------------------------------------------|X2
A|--2----1-------2----0----0------------------------------------------------|
E|----------2-------------------0--2----------------------------------------|


G|--------------------------------------------------------------------------|
D|---------------------------4--2-------------------------------------------|
A|2----1-------2----0----0---------5--4-------------------------------------|
E|--------2-----------------------------------------------------------------|


G|--------------------------------------------------------------------------|
D|--------------------------------------------------------------------------|
A|--2----1-------2----0----0------------------------------------------------|
E|----------2-------------------0--2--4--5----------------------------------|


G|--------------------------------------------------------------------------|
D|---------------------------4--2-------------------------------------------|
A|2----1-------2----0----0---------5--4-------------------------------------|
E|--------2-----------------------------------------------------------------|

G|--------------------------------------------------------------------------|
D|--------------------------------------------------------------------------|X2
A|--2--2/5------------------------------------------------------------------|
E|----------2--2--5----5--0--2--4--5----------------------------------------|


G|--------------------------------------------------------------------------|
D|--------------------------------------------------------------------------|X2
A|--2----1-------2----0----0------------------------------------------------|
E|----------2-------------------0--2--4--5----------------------------------|


G|--------------------------------------------------------------------------|
D|---------------------------4--2-------------------------------------------|X2
A|2----1-------2----0----0---------5--4-------------------------------------|
E|--------2-----------------------------------------------------------------|


G|--------------------------------------------------------------------------|
D|--------------------------------------------------------------------------|X2
A|--2--2/5------------------------------------------------------------------|
E|----------2--2--5----5--0--2--4--5----------------------------------------|


G|----------------------------------------------------------------------------|
D|----------------------------------------------------------------------------|
A|----------------------------------------------------------------------------|
E|3---3---3--0-3-4-5---5---5-0-5-0--7--7--7--7--5--7--7--7--6--5--4--3--------|


G|--------------------------------------------------------------------------|
D|--------------------------------------------------------------------------|
A|----------------------------------------/7--------------------------------|
E|3---3---3-0-3-0--5---5---5-0-5-3-0-----------0----------------------------|


G|--------------------------------------------------------------------------|
D|--------------------------------------------------------------------------|X2
A|--2----1-------2----0----0------------------------------------------------|
E|----------2-------------------0--2--4--5----------------------------------|


G|--------------------------------------------------------------------------|
D|---------------------------4--2-------------------------------------------|X2
A|2----1-------2----0----0---------5--4-------------------------------------|
E|--------2-----------------------------------------------------------------|


G|--------------------------------------------------------------------------|
D|--------------------------------------------------------------------------|X2
A|--2----1-------2----0----0------------------------------------------------|
E|----------2-------------------0--2--4--5----------------------------------|


G|--------------------------------------------------------------------------|
D|--------------------------------------------------------------------------|X2
A|--2--2/5------------------------------------------------------------------|
E|----------2--2--5----5--0--2--4--5----------------------------------------|


G|----------------------------------------------------------------------------|
D|----------------------------------------------------------------------------|
A|----------------------------------------------------------------------------|
E|3---3---3--0-3-4-5---5---5-0-5-0--7--7--7--7--5--7--7--7--6--5--4--3--------|


G|--------------------------------------------------------------------------|
D|--------------------------------------------------------------------------|
A|----------------------------------------/7--------------------------------|
E|3---3---3-0-3-0--5---5---5-0-5-3-0-----------0----------------------------|


G|--------------------------------------------------------------------------|
D|--------------------------------------------------------------------------|
A|--2----1-------2----0----0------------------------------------------------|
E|----------2-------------------0--2----------------------------------------|


G|--------------------------------------------------------------------------|
D|---------------------------4--2-------------------------------------------|X2
A|2----1-------2----0----0---------5--4-------------------------------------|
E|--------2-----------------------------------------------------------------|


G|--------------------------------------------------------------------------|
D|--------------------------------------------------------------------------|X2
A|--2----1-------2----0----0------------------------------------------------|
E|----------2-------------------0--2--4--5----------------------------------|


G|--------------------------------------------------------------------------|
D|--------------------------------------------------------------------------|
A|--2----1-------2----0----0------------------------------------------------|
E|----------2-------------------0--2----------------------------------------|


G|--------------------------------------------------------------------------|
D|--------------------------------------------------------------------------|X9
A|--2--2/5------------------------------------------------------------------|
E|----------2--2--5----5--0--2--4--5----------------------------------------|

| /  slide up
| \  slide down
| h  hammer-on
| p  pull-off
| ~  vibrato
| +  harmonic
| x  Mute note
            
Submit corrections



        Steady As She Goes lessons Hard to play? Try these video lessons and learn fast Steady As She Goes lessons
        
↑ Back to top | Tablatures and chords for acoustic guitar and electric guitar, ukulele, drums are parodies/interpretations of the original songs. You may use it for private study, scholarship, research or language learning purposes only