» » »

The Raconteurs - Hold Up Tabs

Artists:  A B C D E F G H I J K L M N O P Q R S T U V W X Y Z # 

Hold Up Tabs

(ver. 1) Click to play this song!
The Raconteurs
 Rating:
4/5 (4 votes)


 Hold Up lessons Tabs too difficult? Try these video lessons and learn fast
 
                
I think this is the first tab of this wonderful Jack White solo. It's fairly easy, and 
really cool, so have fun playing it! =)
Oh, and don't forget to e-mail me feedback (good or bad) and rate it!

Tuning: Standard EADGBe

With DigiTech Whammy, set one octave up

e|-15p12----12---------------------------------------------------------------|
B|-------15----15p12-14p12---------------------------------------------------|
G|-------------------------15-14~-12h14p12----12-----------------------------|
D|-----------------------------------------14----14p12-14p12-----------------|
A|-----------------------------------------------------------14-12~----------|
E|---------------------------------------------------------------------------|

e|---------------------------------------------------------------------------|
B|---------------------------------------------------------------------------|
G|----------------------------12~-14p12----14----12--------------------------|
D|-14p12----12----12-14p12-14-----------14----14----14~-----12~-14b16~-------|
A|-------14----14---------------------------------------14~------------------|
E|---------------------------------------------------------------------------|

e|-15-12h15p12----12-15-12-----------15-12h15p12----12----12-----------------|
B|-------------15----------15-12-15~-------------15----15----15-12-15~-------|
G|---------------------------------------------------------------------------|
D|---------------------------------------------------------------------------|
A|---------------------------------------------------------------------------|
E|---------------------------------------------------------------------------|

e|-15b17-15-12-15-12-----15b17-15-12----12-----12-------------------12~------|
B|-------------------15~-------------15----15~----15p12h15-15-15-15----------|
G|---------------------------------------------------------------------------|
D|---------------------------------------------------------------------------|
A|---------------------------------------------------------------------------|
E|---------------------------------------------------------------------------|

e|---------------------------------------------------------------------------|
B|-15-12h15p12----12-15-12h15p12----12-15-12h15p12----12-15~-----------------|
G|-------------14----------------14----------------14------------------------|
D|---------------------------------------------------------------------------|
A|---------------------------------------------------------------------------|
E|---------------------------------------------------------------------------|

e|-15b17-15-12-15-12-15b17-15-12-12-15b17r15-12------------------------------|
B|---------------------------------------------------------------------------|
G|---------------------------------------------------------------------------|
D|----------------------------------------------14~~~~-14~-12~-9~-7~---------|
A|---------------------------------------------------------------------------|
E|---------------------------------------------------------------------------|

That's it! Enjoy!

| /  slide up
| \  slide down
| h  hammer-on
| p  pull-off
| ~  vibrato
| +  harmonic
| x  Mute note
            
Submit corrections



        Hold Up lessons Hard to play? Try these video lessons and learn fast Hold Up lessons
        
↑ Back to top | Tablatures and chords for acoustic guitar and electric guitar, ukulele, drums are parodies/interpretations of the original songs. You may use it for private study, scholarship, research or language learning purposes only