» » »

The Prize Fighter Inferno - Who Watches The Watchmen? Tabs

Artists:  A B C D E F G H I J K L M N O P Q R S T U V W X Y Z # 

Who Watches The Watchmen? Tabs

(ver. 1) Click to play this song!
The Prize Fighter Inferno
 Rating:
4/5 (4 votes)

 Who Watches The Watchmen? lessons Tabs too difficult? Try these video lessons and learn fast
 
                -------------------------------------------------------------------------------
-------------------------------------------------------------------------------

Tuning:Standard (EADgbe)

I tabbed this song from synths to guitar, if you haven't bought this album,
do it now!

Any coheed, pfi fans, if you wanna chat, add me on msn :)

Intro 
Guitar 1
e|----------------------|
B|----------------------|
G|---0------------------|
D|-----2-0-2---0-2-0----|
A|-3---------3-------3--|
E|----------------------|

Guitar 2
e|-------------------------|
B|----8p5---8p5---8p5------|
G|-55-----5-----5-----555--|
D|-------------------------|
A|-------------------------|
E|-------------------------|

He then strums the C chords once and lets it ring

Verse
Guitar 1 plays this while guitar 2 strums C & Am
e|-------7--------------------|
B|---5-8---8-5-----5----------|
G|-7-----------7-7---7-5-4----|
D|-------------------------7--|
A|----------------------------|
E|----------------------------|

"Little did you once now"
Guitar 1 plays this while guitar 2 strums G & F
e|----------------------|
B|----------------------|
G|----------------------|
D|---0-2--2h3--0h2p0----|
A|-3-----------------3--|
E|----------------------|


Chorus & Outro
Strum the chords
C Am G F

Any comments, suggestions, or anything, you know where to find me:


| /  slide up
| \  slide down
| h  hammer-on
| p  pull-off
| ~  vibrato
| +  harmonic
| x  Mute note
===============================================================================
            
Submit corrections


        Who Watches The Watchmen? lessons Hard to play? Try these video lessons and learn fast Who Watches The Watchmen? lessons
        
↑ Back to top | Tablatures and chords for acoustic guitar and electric guitar, ukulele, drums are parodies/interpretations of the original songs. You may use it for private study, scholarship, research or language learning purposes only