» » »

The Prize Fighter Inferno - The Missing Mccloud Boys Tabs

Artists:  A B C D E F G H I J K L M N O P Q R S T U V W X Y Z # 

The Missing Mccloud Boys Tabs

(ver. 2) Click to play this song!
The Prize Fighter Inferno
 Rating:
4.6/5 (10 votes)

 The Missing Mccloud Boys lessons Tabs too difficult? Try these video lessons and learn fast
 
                -----------------------------------------------------------------------------
              The Missing McCloud Boys - The Prizefighter Inferno
-----------------------------------------------------------------------------

Tuning: Standard


  Intro And Verse 1

e|---------------------------------------------------------------------------|
B|----------5--------------------------5-------------------------------------|
G|-------7-----7--------------------7-----7----------------------------------|
D|----7-----------7---(x2)-------7-----------7---(x2)------------------------|
A|-5--------------------------4----------------------------------------------|
E|---------------------------------------------------------------------------|



  Chorus

e|---------------------------------------------------------------------------|
B|---------------------------------------------------------------------------|
G|---------------------------------------------------------------------------|
D|--5-(x12)---9-(x6)---7-(x6)------------------------------------------------|
A|--3---------7--------5-----------------------------------------------------|
E|---------------------------------------------------------------------------|




Verse 2

e|---------------------------------------------------------------------------|
B|---------------------------------------------------------------------------|
G|---------------------------------------------------------------------------|
D|------7-(x12)----7-(x12)---------------------------------------------------|
A|------5----------4---------------------------------------------------------|
E|---------------------------------------------------------------------------|



  Chorus

e|---------------------------------------------------------------------------|
B|---------------------------------------------------------------------------|
G|---------------------------------------------------------------------------|
D|--5-(x12)---9-(x6)---7-(x6)------------------------------------------------|
A|--3---------7--------5-----------------------------------------------------|
E|---------------------------------------------------------------------------|




This Song Is Just Amazing...The Prizefighter Inferno Is A Project Claudio (From Coheed 
Cambria) Started. I Am Positive That These TABs Are 100% Correct. If Someone Could Maybe 
Me The Lyrics...It's Hard To Hear What He Is Saying During The Verses...No Lyric Sites Have It...


Ricky.
            
Submit corrections


        The Missing Mccloud Boys lessons Hard to play? Try these video lessons and learn fast The Missing Mccloud Boys lessons
        
↑ Back to top | Tablatures and chords for acoustic guitar and electric guitar, ukulele, drums are parodies/interpretations of the original songs. You may use it for private study, scholarship, research or language learning purposes only