» » »

The Pigeon Detectives - I'm Not Sorry Tabs

Artists:  A B C D E F G H I J K L M N O P Q R S T U V W X Y Z # 

I'm Not Sorry Tabs

(ver. 1) Click to play this song!
The Pigeon Detectives
 Rating:
4/5 (4 votes)


 I'm Not Sorry lessons Tabs too difficult? Try these video lessons and learn fast
 
                this is definitely right...Got the solo tabbed its pretty easy one the timing is worked out.

standard tuning...

h/ : Hammer on
/h : Hammer off
s/ : Slide down
/s : Slide up

Slower bit...

e|--------------------------------------------------------------|
B|----------------------10--9--10--12-------12 h/-14-/h 12------|
G|----9 h/-11-/h 9----------------------------------------------|
D|--------------------------------------------------------------|
A|--------------------------------------------------------------|
E|--------------------------------------------------------------|

e|-----------------------------------------------------------|
B|----10 h/-12-/h 10-s/ -9---10--9---------------------------|
G|----------------------------------11--9--------------------|
D|-----------------------------------------------------------|
A|-----------------------------------------------------------|
E|-----------------------------------------------------------|

Faster Bit after 4 drum taps...

e|-------------------------------------------------------------|
B|-----9--10--9--12----9--10--9--12----10--12--10--14----------|
G|-------------------------------------------------------------|
D|-------------------------------------------------------------|
A|-------------------------------------------------------------|
E|-------------------------------------------------------------|

e|-------------------------------------------------------------|
B|----10--12--10--14----12--14--12--16----12--14--12--16-------|
G|-------------------------------------------------------------|
D|-------------------------------------------------------------|
A|-------------------------------------------------------------|
E|-------------------------------------------------------------|

e|----------------------------------------------------------------------------|
B|----14--16--14--17----14--16--14--17-s/ 9 (repeat faster bit from this)-----|
G|----------------------------------------------------------------------------|
D|----------------------------------------------------------------------------|
A|----------------------------------------------------------------------------|
E|----------------------------------------------------------------------------|
            
Submit corrections



        I'm Not Sorry lessons Hard to play? Try these video lessons and learn fast I'm Not Sorry lessons
        
↑ Back to top | Tablatures and chords for acoustic guitar and electric guitar, ukulele, drums are parodies/interpretations of the original songs. You may use it for private study, scholarship, research or language learning purposes only