» » »

The Offspring - Million Miles Away Tabs

Artists:  A B C D E F G H I J K L M N O P Q R S T U V W X Y Z # 

Million Miles Away Tabs

(ver. 1) Click to play this song!
The Offspring
 Rating:
4/5 (4 votes)


 Million Miles Away lessons Tabs too difficult? Try these video lessons and learn fast
 
                The Offspring


***********************************************
***********************************************


Hey, here it goes: 
Of course, this song as every song by Offspring, has two guitars.
I'll tab both, though it's mainly mute picking on one and
strumming on the other.
Above each riff you can see which guitar plays that riff.


Riff 1 (palm muted)
 Guitar 1
E--------------------------------------------------
B--------------------------------------------------
G--------------------------2-----------------------
D--------4--------2-----------------2--------2h4---
A--------------------------------------------------
E--2--2-----2--2-----2--2-----2--2-----2--2--------


Riff 2
 Guitar 2
E---------------------------
B---------------------------
G---------------------------
D--7--14--16-----7--14--4---
A--7--14--16-----7--14--4---
E--5--12--14-----5--12--2---


Riff 3
 Guitar 1 & 2
      m m m         m m m            m  m  m
E----------------------------------------------------
B----------------------------------------------------
G----------------------------------------------------
D--4--4-4-4--4/7-7--7-7-7--7/14-14--14-14-14--14\4---
A--4--4-4-4--4/7-7--7-7-7--7/14-14--14-14-14--14\4---
E--2--2-2-2--2/5-5--5-5-5--5/12-12--12-12-12--12\2---


Riff 4
 Guitar 1 & 2
E----------------------
B----------------------
G--4-/-6-/-7-\-6-/-9---
D--4-/-6-/-7-\-6-/-9---
A--2-/-4-/-5-\-4-/-7---
E----------------------


Riff 5
 Guitar 1 & 2
   m m m
E-----------------
B-----------------
G--9-9-9---9/11---
D--9-9-9---9/11---
A--7-7-7---7/-9---
E-----------------


Riff 6
 Guitar 1 & 2
   A5 E5 F#5
E--------------------
B--------------------
G-----9--11------9---
D--7--9--11---7--9---
A--7--7---9---7--7---
E--5----------5------

 Guitar 1
   m  m  m
E----------------------
B----------------------
G-----------7--9--11---
D--4--7--9--7--9--11---
A--4--7--9--5--7---9---
E--2--5--7-------------


Riff 7
 Guitar 2
E----------------
B----------------
G----11------9---
D----11---7--9---
A-----9---7--7---
E---------5------

~~~~~~~~~~~~~~~~~~~~

Now the order:

-INTRO
 Guitar 1
|E--------------------------------------------------------
|B--------------------------------------------------------
|G------------------2-------------------------------------
|D------4-----2-----------2-----2h4-----------------------
|A--------------------------------------------------------
|E--2-2---2-2---2-2---2-2---2-2---------------------------
|
|Guitar 2
|E--------------------------------------------------------
|B--------------------------------------------------------
|G--------------------------------------------------------
|D-----------------------------------7---7/14--14---14----
|A-----------------------------------7---7/14--14---14----
|E-----------------------------------5---5/12--12---12----

Play this part above twice.
Then, Guitar 1 keeps playing the same thing,
but Guitar 2 plays this:

E------------------------------------------------
B------------------------------------------------
G----------------------4/7-7---7/9-9---9/11-11---
D--4---4/7-7---7/9-9---4/7-7---7/9-9---9/11-11---
A--4---4/7-7---7/9-9---2/5-5---5/7-7---7/-9--9---
E--2---2/5-5---5/7-7-----------------------------


-RIFF 2 (With Guitar 1 playing *RIFF 1* over it)

-RIFF 3 (Over verse)
 This riff is played like this: palm mute all chords and only
 let them sound openly when you change chords. This is in most
 Offspring songs, so it's easy to figure out.
 The 'm' says when to mute anyway.

-RIFF 4 (2x)

-RIFF 5
 Keep chord palm muted and lift your hand progressively.

-RIFF 6 (Over chorus)
 First part is two guitars doing the same.
 Second part, Guitar 2 play as Riff 3, mute chords with the 'm' but let it sound
 when you change chords.
 Over Guitar 2 palm muted, Guitar 1 plays *RIFF 1*



-RIFF 2

-RIFF 3 (Onto second verse)

-RIFF 4 (2x)

-RIFF 5

-RIFF 6 (Over chorus)

-SOLO
 Guitar 1
E-------------------------------------------------------------------
B-------------------------------------------------------------------
G--16b18r16--14--14p11--11-11-11----16b18r16--14--14h16--16-16-16---
D-------------------------------------------------------------------
A-------------------------------------------------------------------
E-------------------------------------------------------------------
  2 times

E-------------------------------------------------------------------
B-------------------------------------------------------------------
G--16\11--11--11--11----9--9/11--11/14--14--14----------------------
D-------------------------------------------------------------------
A-------------------------------------------------------------------
E-------------------------------------------------------------------
  3 times

E-------------------------------------------------------------------
B-------------------------------------------------------------------
G--11/14---14/16---16\13---13\9-------------------------------------
D-------------------------------------------------------------------
A-------------------------------------------------------------------
E-------------------------------------------------------------------

Chords for solo: F#5 A5 E5 
                 F#5 A5 E5 
                 F#5 A5 B5 D5 E5

-RIFF 4 (2x)

-RIFF 5

-RIFF 7 (Till the end)
 After the second time, Guitar 1 plays *RIFF 1* over it.

End with this:
 Guitar 1 & 2
E--------------------
B--------------------
G--------------------
D--4~~~--------------
A--4~~~--------------
E--2~~~--------------


That's it.
Enjoy!

-----------------------------------------------
-----------------------------------------------
            
Submit corrections



        Million Miles Away lessons Hard to play? Try these video lessons and learn fast Million Miles Away lessons
        
↑ Back to top | Tablatures and chords for acoustic guitar and electric guitar, ukulele, drums are parodies/interpretations of the original songs. You may use it for private study, scholarship, research or language learning purposes only