» » »

The Offspring - Come Out Swinging Bass

Artists:  A B C D E F G H I J K L M N O P Q R S T U V W X Y Z # 

Come Out Swinging Bass

(ver. 1) Click to play this song!
The Offspring
 Rating:
4/5 (4 votes)


 Come Out Swinging lessons Tabs too difficult? Try these video lessons and learn fast
 
                this tab is 99% correct

Intro
G-------------------------------
D--------------------------------
A--7-7-5-7-7-5-7-10-10-5-5-10 9-7 x4
E--------------------------------
then...

a-7-x-x-x-7-x-x-x-7-x-x-x-7-x-x-x-7-x-x-x-7- do that untill the verse starts

verse



a----7--7-7--5--5-5---7--7-7---9-9-10-10-9-5-- 4 x
then

a--3-3-5-5


chorus




a--7--7-5-7-7-5-7--------------------3-3-5-5-----2x then back to verse
e-----------------3-3-3-3-3--35--3-5-----------



bridge





e--0-0-0-0-0-0-0-3-3-3-3-3-5-5-5-5-5-5-5-5-----------------2x

then brdge 2


a-77777777 3333333 ---------5555555-------------------------------------------
e------------------555555555--------77777777777---------------------------4x 
then back to chorus



Also soon i will tab one fine day,Conspiracy of One,Million Miles Away
            
Submit corrections



        Come Out Swinging lessons Hard to play? Try these video lessons and learn fast Come Out Swinging lessons
        
↑ Back to top | Tablatures and chords for acoustic guitar and electric guitar, ukulele, drums are parodies/interpretations of the original songs. You may use it for private study, scholarship, research or language learning purposes only