Home » T » The National »

The National - Fake Empire Tabs

Artists:  A B C D E F G H I J K L M N O P Q R S T U V W X Y Z # 

Fake Empire Tabs

(ver. 1) Click to play this song!
The National
-------------------------------------------------------------------------------
                             FAKE EMPIRE - The National
-------------------------------------------------------------------------------

Tuning: Standard

Just a quick overview of the song. The tab is shabby but I only spent a few minutes on 
- it is pretty simple to pick up. 4 over 3 pattern with the index and middle fingers on 
4 and thumb on the 3. Fun little tune

good luck!

e|-0---0---0---0---0---0---0---0---0---0---0---0---0---0---0---0-------------|
B|-1---1---1---1---1---1---1---1---1---1---1---1---1---1---1---1-------------|
G|---------------------------------------------------------------------------|
D|---------------------------------------------------------------------------|
A|-3----3----3---------------------------------------------------------------|
E|-----------------1----1----1-----3----3----3-----3----3----3---------------|

e|---------------------------------------------------------------------------|
B|-1---1---1---1---1---1---1---1---3---3---3---3---3---3---3---3-------------|
G|-2---2---2---2---2---2---2---2---0---0---0---0---0---0---0---0-------------|
D|---------------------------------------------------------------------------|
A|-0----0----0---------------------------------------------------------------|
E|-----------------1----1----1-----3----3----3-----3----3----3---------------|
            
Submit corrections

↑ Back to top | Tablatures and chords for acoustic guitar and electric guitar, ukulele, drums are parodies/interpretations of the original songs. You may use it for private study, scholarship, research or language learning purposes only