» » »

The Miserables - Do You Hear The People Sing Tabs

Artists:  A B C D E F G H I J K L M N O P Q R S T U V W X Y Z # 

Do You Hear The People Sing Tabs

(ver. 1) Click to play this song!
The Miserables
 Rating:
4/5 (8 votes)

 Do You Hear The People Sing lessons Tabs too difficult? Try these video lessons and learn fast
 
                           Do You Hear The People Sing? - Les Miserables
------------------------------------------------------------------------------------------|

Tuning:

e|--------------------------------------------------------------------------|
B|--7-5---5-7-8-10----7-5--------------------------7-5-4-5---3-----3-5------|
G|------7-----------------7-6-4-6-7-2--6-2-----2-7---------4---6-6----------|
D|-----------------------------------------5-4------------------------------|
A|--------------------------------------------------------------------------|
E|--------------------------------------------------------------------------|

e|--------------------------------------------------------------------------|
B|--7-5---5-7-8-10----7-5-------------------------7-5-4-5-10----------------|
G|------7-----------------7-6-4-6-7-2-6-2-----2-7------------6-7------------|
D|----------------------------------------5-4-------------------------------|
A|--------------------------------------------------------------------------|
E|--------------------------------------------------------------------------|

e|--------------------------------------------------------------------------|
B|--------------------------------------5-------5----5----------------------|
G|--2-2-4-3-4-6-7-6-4-7-6-4-2-4-6---6-7---7-6-7--7-6---7-6-4-6-7------------|
D|--------------------------------------------------------------------------|
A|--------------------------------------------------------------------------|
E|--------------------------------------------------------------------------|

e|----------------------------|
B|---------------------5~~~~--|
G|--4--764-764-764-767--------|Repeat from beginning, then go to next bar:
D|----------------------------|
A|----------------------------|
E|----------------------------|

e|--------------------------------------------------------------------------|
B|--7-5---5-7-8-10----7-5--------------------------7-5-4-5---3-----3-5------|
G|------7-----------------7-6-4-6-7-2--6-2-----2-7---------4---6-6----------|
D|-----------------------------------------5-4------------------------------|
A|--------------------------------------------------------------------------|
E|--------------------------------------------------------------------------|

e|--------------------------------------------------------------------------|
B|--7-5---5-7-8-10----7-5-------------------------7-8-7-8-12-5-----15-------|
G|------7-----------------7-6-4-6-7-2-6-2-----2-7--------------7~~----------|
D|----------------------------------------5-4-------------------------------|
A|--------------------------------------------------------------------------|
E|--------------------------------------------------------------------------|

| /  slide up
| \  slide down
| h  hammer-on
| p  pull-off
| ~  vibrato
| +  harmonic
| x  Mute note
===============================================================================
            
Submit corrections


        Do You Hear The People Sing lessons Hard to play? Try these video lessons and learn fast Do You Hear The People Sing lessons
        
↑ Back to top | Tablatures and chords for acoustic guitar and electric guitar, ukulele, drums are parodies/interpretations of the original songs. You may use it for private study, scholarship, research or language learning purposes only