» » »

Theme Song - The Simpsons Bass

Artists:  A B C D E F G H I J K L M N O P Q R S T U V W X Y Z # 

The Simpsons Bass

(ver. 1) Click to play this song!
Theme Song
 Rating:
3.4/5 (5 votes)
    The Simpsons lessons Tabs too difficult? Try these video lessons and learn fast
                (Theme)
The Simpsons Theme Song

G--------4-2---------------------|
D-0---4-6---4-0------------------|
A--------------33355-55557-77777-|
E--------------------------------|

G--------4-2---------------------|
D-0---4-6---4-0------------------|
A--------------33355-55557-77777-|
E--------------------------------|

G--------4-2---------------------|
D-0---4-6---4-0------------------|
A--------------33355-55557-77777-|
E--------------------------------|

G--------4-2---------------------|
D-0---4-6---4-0------------------|
A--------------33355-55557-77777-|
E--------------------------------|
            
Submit corrections

↑ Back to top | Tablatures and chords for acoustic guitar and electric guitar, ukulele, drums are parodies/interpretations of the original songs. You may use it for private study, scholarship, research or language learning purposes only