» » »

Theme Song - Spank The Monkey Bass

Artists:  A B C D E F G H I J K L M N O P Q R S T U V W X Y Z # 

Spank The Monkey Bass

(ver. 1) Click to play this song!
Theme Song
 Rating:
4/5 (4 votes)
                G:|------------------------------------|
D:|------------------------------------|
A:|---------------------------------0--|
E:|--5-3-0-0-0--5-7-9-10-11-12-14-12---|

G:|---------------------------|
D:|---------------------------|
A:|--0-0-0--5656-0--0--0--0---|
E:|---------------------------|


While Waiting Theme

G:|---------------|
D:|---------------|
A:|--0~------3----|
E:|-----0H3-------|
            
Submit corrections

↑ Back to top | Tablatures and chords for acoustic guitar and electric guitar, ukulele, drums are parodies/interpretations of the original songs. You may use it for private study, scholarship, research or language learning purposes only