» » »

Theme Song - Michigan Fight Song Bass

Artists:  A B C D E F G H I J K L M N O P Q R S T U V W X Y Z # 

Michigan Fight Song Bass

(ver. 1) Click to play this song!
Theme Song
 Rating:
4/5 (4 votes)
                G-----------------------------------------------
D-----------------------------------------------
A-2--0-2--0-2-3--0-2-3--0-2-3-5-7-2-3--0-2-0--5-
E---3---3-----------------------------3-----3---

G-------------------------------------------------
D-------------------------------------------------
A-2--0-2--0-2-3--0-2-3--0-2-3-5-7-2-3--0-2-5-2-0--
E---3---3-----------------------------3---------3-
            
Submit corrections

↑ Back to top | Tablatures and chords for acoustic guitar and electric guitar, ukulele, drums are parodies/interpretations of the original songs. You may use it for private study, scholarship, research or language learning purposes only