» » »

Theme Song - Lord Of The Rings Bass

Artists:  A B C D E F G H I J K L M N O P Q R S T U V W X Y Z # 

Lord Of The Rings Bass

(ver. 1) Click to play this song!
Theme Song
 Rating:
4/5 (4 votes)


 Lord Of The Rings lessons Tabs too difficult? Try these video lessons and learn fast
 
                G|--------------------------------------------------------------------------------------------------------------------------------------------
D|--------------------------------------------------------------------------------------------------------------------------------------------
A|---0-----------------------------0---------0-----------------------------------------------------0----------------------------------------
E|--------------------------------------------------------3--------------3----------3---------------------------------------------------------

G|---------------------------------------------------------------------------------------------------------------------------------------------
D|----0---------2--3----2----0----------------0------2----0--------------------------------------------------------------------------------
A|-----------------------------------3-------------------------------3----------2------------------------------------------------------------
E|---------------------------------------------------------------------------------------------------------------------------------------------
            
Submit corrections



        Lord Of The Rings lessons Hard to play? Try these video lessons and learn fast Lord Of The Rings lessons
        
↑ Back to top | Tablatures and chords for acoustic guitar and electric guitar, ukulele, drums are parodies/interpretations of the original songs. You may use it for private study, scholarship, research or language learning purposes only