» » »

The Menzingers - I Cant Seem To Tell Bass

Artists:  A B C D E F G H I J K L M N O P Q R S T U V W X Y Z # 

I Cant Seem To Tell Bass

(ver. 1) Click to play this song!
The Menzingers
 Rating:
4/5 (4 votes)


 I Cant Seem To Tell lessons Tabs too difficult? Try these video lessons and learn fast
 
                Track: I Can’t Seem To Tell
Tuning: Half step down (D#G#C#F#)

Intro
F#|--------------------------------|--------------------------------|
C#|o-------------------------------|---------------------2----------| 
G#|o----------------4-4-4---4-4-4--|-----------------4-------4---2--| 
D#|-0---0---0---0------------------|-0---0---0---0------------------|

F#|--------------------------------|--------------------------------|
C#|--------------------------------|-------------------------------o| 
G#|-----------------4-4-4---4-4-4--|-------------------------------o| x2 
D#|-0---0---0---0------------------|-4---4---4---4---5---5---5---5--|

Verse
F#|--------------------------------|--------------------------------|
C#|o-------------------------------|--------------------------------| 
G#|o----------------4---4---4---4--|-----------------4---4---4---4--| 
D#|-0---0---0---0------------------|-0---0---0---0------------------|

F#|--------------------------------|--------------------------------|
C#|--------------------------------|-------------------------------o| 
G#|-----------------4---4---4---4--|-------------------------------o| x2 
D#|-0---0---0---0------------------|-4---4---4-4-4---5---5---5---5--|

Repeat intro x2
Repeat verse x2

Prechorus
F#|--------------------------------|--------------------------------|
C#|--------------------------------|--------------------------------| 
G#|-----------------4---4---4---4--|--------------------------------| 
D#|-4---4---4---4------------------|-4---4---4---4---5---5---5---5--|

F#|--------------------------------|--------------------------------|
C#|--------------------------------|--------------------------------| 
G#|-----------------4---4---4---4--|--------------------------------| 
D#|-4---4---4---4------------------|-4---4---4---4---5--------------|

Chorus
F#|--------------------------------|--------------------------------|
C#|o-------------------------------|--------------------------------| 
G#|o-------------------------------|--------------------------------| 
D#|-5---5---5---5---0-0-0---0-0-0--|-5---5---5---5---0-0-0---0-0-0--|

F#|--------------------------------|--------------------------------|
C#|--------------------------------|-------------------------------o| 
G#|--------------------------------|-2---2---2---2---4---4---4---4-o| x2 
D#|-5---5---5---5---0-0-0---0-0-0--|--------------------------------|

Repeat verse x2
Repeat chorus x2

Outro
F#|--------------------------------|--------------------------------|
C#|--------------------------------|--------------------------------| 
G#|--------------------------------|-2---------------4--------------| 
D#|-5---------------0--------------|--------------------------------|
            
Submit corrections



        I Cant Seem To Tell lessons Hard to play? Try these video lessons and learn fast I Cant Seem To Tell lessons
        
↑ Back to top | Tablatures and chords for acoustic guitar and electric guitar, ukulele, drums are parodies/interpretations of the original songs. You may use it for private study, scholarship, research or language learning purposes only