» » »

The Kooks - She Moves In Her Own Way Bass

Artists:  A B C D E F G H I J K L M N O P Q R S T U V W X Y Z # 

She Moves In Her Own Way Bass

(ver. 3) Click to play this song!
The Kooks
 Rating:
4/5 (4 votes)

 She Moves In Her Own Way lessons Tabs too difficult? Try these video lessons and learn fast
 
                
Verse

g:------------------------------------------------------|
d:------------------------------------------------------|
a:---------------3-3-3---------------------22----55-----|
e:--3-3-3---------------------5-5-5---------------------|

Chorus

g:------------------------------------------------------|
d:------------------------------------------------------|
a:--------------5-5-5---------------------22----55------|
e:-3-3-3---------------------5-5-5----------------------|

g:------------------------------------------------------|
d:------------------------------------------------------|
a:--------------3-3-3---------------------22----55------|
e:-0-0-0---------------------5-5-5----------------------|

Breakdown

g:------------------------------------------------------|
d:------------------------------------------------------|
a:------------------------------------------------------|
e:-0-0----------------0-0----------------0-0------------|


This is a simple version on what to play, put in order what needs to be played and how 
times. Good for a bass player just starting to play, enjoy !
            
Submit corrections


        She Moves In Her Own Way lessons Hard to play? Try these video lessons and learn fast She Moves In Her Own Way lessons
        
↑ Back to top | Tablatures and chords for acoustic guitar and electric guitar, ukulele, drums are parodies/interpretations of the original songs. You may use it for private study, scholarship, research or language learning purposes only