» » »

The Hold Steady - Slapped Actress Tabs

Artists:  A B C D E F G H I J K L M N O P Q R S T U V W X Y Z # 

Slapped Actress Tabs

(ver. 1) Click to play this song!
The Hold Steady
 Rating:
4/5 (5 votes)

 Slapped Actress lessons Tabs too difficult? Try these video lessons and learn fast
 
                

Tuning: Standard

Main Riff - play it clean in the verses!

     E  E  E  Q   E  E E   +E   E E  E  E  E  E  E
||-----------------------|--------------------------||
||o----------------------|-------------------------o||
||-----------------------|--------------------------||
||--11-11-11-----------9-|-(9)-11-9-----------------||
||o-11-11-11-11--11-11-0-|-(0)--0-0-11-11-11-11-11-o||
||---9--9--9--0---0--0---|-----------0--0--0--0--0--||


Chorus/Outro


    E E E E E E E E   E E E E E E E E   E E E E E E E E   E E E E E E E E
||------------------|-----------------|-----------------|------------------|
||o-----------------|-----------------|-----------------|------------------|
||------------------|-6-6-6-6-6-6-6-6-|-----------------|-1-1-1-1-1-1-1-1--|
||--6-6-6-6-6-6-6-6-|-6-6-6-6-6-6-6-6-|-7-7-7-7-7-7-7-7-|-2-2-2-2-2-2-2-2--|
||o-6-6-6-6-6-6-6-6-|-4-4-4-4-4-4-4-4-|-7-7-7-7-7-7-7-7-|-2-2-2-2-2-2-2-2--|
||--4-4-4-4-4-4-4-4-|-----------------|-5-5-5-5-5-5-5-5-|-0-0-0-0-0-0-0-0--|

    PM------------------------------------------------------------|
  E E E E E E E E   E E E E E E E E   E E E E E E E E   E E E E E E E E
|-----------------|-----------------|-----------------|------------------||
|-----------------|-----------------|-----------------|-----------------o||
|-----------------|-----------------|-----------------|------------------||
|-4-4-4-4-4-4-4-4-|-4-4-4-4-4-4-4-4-|-4-4-4-4-4-4-4-4-|-4-4-4-4-4-4-4-4--||
|-4-4-4-4-4-4-4-4-|-4-4-4-4-4-4-4-4-|-4-4-4-4-4-4-4-4-|-4-4-4-4-4-4-4-4-o||
|-2-2-2-2-2-2-2-2-|-2-2-2-2-2-2-2-2-|-2-2-2-2-2-2-2-2-|-2-2-2-2-2-2-2-2--||

There is a bridge after the second chorus; I think they just play E on a single
string for that (I'm open to suggestion though!)
            
Submit corrections


        Slapped Actress lessons Hard to play? Try these video lessons and learn fast Slapped Actress lessons
        
↑ Back to top | Tablatures and chords for acoustic guitar and electric guitar, ukulele, drums are parodies/interpretations of the original songs. You may use it for private study, scholarship, research or language learning purposes only