» » »

The Gladiators - Hello Carol Bass

Artists:  A B C D E F G H I J K L M N O P Q R S T U V W X Y Z # 

Hello Carol Bass

(ver. 1) Click to play this song!
The Gladiators
 Rating:
4/5 (4 votes)

 Hello Carol lessons Tabs too difficult? Try these video lessons and learn fast
 
                

Chorus:
|---------------------------------|-----1-2-2-2-2-----2-------------|
|-----1-2-2-2-2-----2-------------|-2-4-----------2-2---------------|
|-2-4-----------2-2---------------|---------------------------------|
|---------------------------------|---------------------------------|

|---------------------------------|---1-2-4-4-4-4-------------------|
|-----1-2-2-2-2-----2-------------|-2-------------4-4-2-------------|
|-2-4-----------2-2---------------|---------------------------------|
|---------------------------------|---------------------------------|


Verse:
|-----1-2-2-2-2-----2-------------|---------------------------------|
|-2-4-----------2-2---------------|-----1-2-2-2-2-----2-------------|
|---------------------------------|-2-4-----------2-2---------------|
|---------------------------------|---------------------------------|

|-----1-2-2-2-2-----2-------------|---------------------------------|
|-2-4-----------2-2---------------|-----1-2-2-2-2-----2-------------|
|---------------------------------|-2-4-----------2-2---------------|
|---------------------------------|---------------------------------|

|---------------------------------|---------------------------------|
|-----1-2-2-2-2-----2-------------|-----1-2-2-2-2-----2-------------|
|-2-4-----------2-2---------------|-2-4-----------2-2---------------|
|---------------------------------|---------------------------------|

|---1-2-4-4-4-4-----4-------------|---1-2-4-4-4-4-----4-------------|
|-2-------------4-4---------------|-2-------------4-4---------------|
|---------------------------------|---------------------------------|
|---------------------------------|---------------------------------|
            
Submit corrections


        Hello Carol lessons Hard to play? Try these video lessons and learn fast Hello Carol lessons
        
↑ Back to top | Tablatures and chords for acoustic guitar and electric guitar, ukulele, drums are parodies/interpretations of the original songs. You may use it for private study, scholarship, research or language learning purposes only