» » »

The Getaway Plan - Where The City Meets The Sea Tabs

Artists:  A B C D E F G H I J K L M N O P Q R S T U V W X Y Z # 

Where The City Meets The Sea Tabs

(ver. 1) Click to play this song!
The Getaway Plan
 Rating:
4/5 (10 votes)

 Where The City Meets The Sea lessons Tabs too difficult? Try these video lessons and learn fast
 
                

This is an awesome song by the best band in Australia. 
It's off their debut album "Other Voices, Other Rooms".
Check out their early stuff too.




INTRO 


Guitar One

E|----------------------------------------------|      |--------|
B|----------------------------------------------|      |--5~----|
G|----------------------------------------------|      |--6~----|
D|-0-----2-----4-----2-----0-----2------4-------| x 2  |--7~----|
A|-0-x8--2-x8--4-x8--2-x8--0-x8--2-x8---4-x16---|      |--0~----|
D|-0-----2-----4-----2-----0-----2------4-------|      |--0~----|
  PM............................................

Guitar Two

comes in after guitar one plays x 1

E|----------------------------------------------------|
B|-14~------17~------14~------17~------17~------------|
G|---14~------14~------14~--------14~------14~--------|
D|-----14~------14~------14~---------14~-------14~----|
A|----------------------------------------------------|
D|----------------------------------------------------|

____________________________________________________________________________

CHORUS


Guitar One

E|----------------------------------------------|    
B|----------------------------------------------|     
G|----------------------------------------------|      
D|-0-----2-----4-----2-----0-----2------4-------| x 1
A|-0-x8--2-x8--4-x8--2-x8--0-x8--2-x8---4-x16---|     
D|-0-----2-----4-----2-----0-----2------4-------|    

Guitar Two

E|----------------------------------|
B|-------77------77------77---------|
G|-666999--666999--666999--66644422-|
D|----------------------------------| x 2
A|----------------------------------|
D|----------------------------------|

____________________________________________________________________________

VERSE


Guitar One - NONE

Guitar Two (w/ delay and reverb)

E|---------------------------14~--------|
B|-14--14--14--14--------14------14-----|
G|---14--14--14--14~-------14-------14~-|
D|---------------------14---------------| x 2 
A|--------------------------------------|
D|--------------------------------------|

then (w/ delay and reverb)

E|-----------------------------------14----14-----14-----17p14--14-17p14-|
B|-14----14----14----17----14--14----------------------------------------|
G|---1414--1414--1414--1414--14--14----1414--1414---1414------14---------|
D|--------------------------------------------------------------------| x 2 
A|-----------------------------------------------------------------------|
D|-----------------------------------------------------------------------|


Guitar Three (piano) come in with the part above...

E|-21-------------19--21---------24-24--|
B|----22-21-22-21-------22-21-22--------|
G|--------------------------------------|
D|--------------------------------------| x 2
A|--------------------------------------|
D|--------------------------------------|

FILL

E|------------|
B|-5~-5~-9~~--|
G|-6~-4~-9~~--|
D|-7~-6~-11~~-|
A|-0~-4~-9~~--|
D|-0~---------|

____________________________________________________________________________

CHORUS


Guitar One

E|----------------------------------------------|    
B|----------------------------------------------|     
G|----------------------------------------------|     
D|-0-----2-----4-----2-----0-----2------4-------| x 1
A|-0-x8--2-x8--4-x8--2-x8--0-x8--2-x8---4-x16---|     
D|-0-----2-----4-----2-----0-----2------4-------|    

Guitar Two

E|----------------------------------|               |----------------|
B|-------77------77------77---------|               |-99977777-------|
G|-666999--666999--666999--66644422-|     2nd time  |----------------|
D|----------------------------------| x 2 end on -> |----------------|
A|----------------------------------|               |----------------|
D|----------------------------------|               |----------------|

____________________________________________________________________________

Verse


Guitar One

E|-----------------------------------------|
B|-----------------------------------------|
G|-777--7--7999--9--91111-1111666---666----|
D|-xxx--x--xxxx--x--xxxx--x--xxxx---xxx----|  x 4
A|-555--5--5777--7--7999--9--9444---444----|
D|-----------------------------------------|
 pm..       ..       ..       ..    ...   

Guitar Two

E|------------------------------------------------------------------|
B|-15xx15xx15xx15xx14xx14xx14xx14xx12xx12xx12xx12xx17xx17xx17xx17xx-|
G|-14xx14xx14xx14xx14xx14xx14xx14xx14xx14xx14xx14xx14xx14xx14xx14xx-| x 2
D|------------------------------------------------------------------|
A|------------------------------------------------------------------|
D|------------------------------------------------------------------|

then (w/ delay and reverb)

E|-------------------------------------------------|
B|-------17------17--------------15-14-12h14-10h12-|
G|-13-14---13-14-----14-14-14-14-------------------| 
D|-------------------------------------------------| x 4
A|-------------------------------------------------|
D|-------------------------------------------------|

____________________________________________________________________________

CHORUS



Guitar One

E|----------------------------------------------|    
B|----------------------------------------------|     
G|----------------------------------------------|     
D|-0-----2-----4-----2-----0-----2------4-------| x 2
A|-0-x8--2-x8--4-x8--2-x8--0-x8--2-x8---4-x16---|     
D|-0-----2-----4-----2-----0-----2------4-------|    

Guitar Two 

E|----------------------------------|               |----------------|
B|-------77------77------77---------|               |-99977777-------|
G|-666999--666999--666999--66644422-|     2nd time  |----------------|
D|----------------------------------| x 2 end on -> |----------------|
A|----------------------------------|               |----------------|
D|----------------------------------|               |----------------|

THEN (w/ delay and reverb)

E|-------------------------------------------------|     
B|-------17------17--------------15-14-12h14-10h12-| 
G|-13-14---13-14-----14-14-14-14-------------------|     
D|-------------------------------------------------| x 2
A|-------------------------------------------------|         
D|-------------------------------------------------|     

 |-------------------|
 |-------------------|
 |-1313131414141616--| 
 |-------------------| x 4
 |-------------------|
 |-------------------|   

____________________________________________________________________________


BRIDGE


Guitar One

E|------------------------------------------|    
B|--------------------P---------------------|     
G|--------------------A---------------------|     
D|-0-----2-----4------U-0-----2------4------| x 2
A|-0-x8--2-x8--4-x16--S-0-x8--2-x8---4-x16--|     
D|-0-----2-----4------E-0-----2------4------|  

Guitar Two

E|-----------------------------------| 
B|-1515151414141414-1515151414141717-|
G|-----------------------------------|
D|-----------------------------------| x 2
A|-----------------------------------|
D|-----------------------------------|


|-171717161616-----171717161616-----171717161616-----------------------|
|-------------1717-------------1717-------------1717-1515151414141414--| 
|----------------------------------------------------------------------|
|----------------------------------------------------------------------|
|----------------------------------------------------------------------|
|----------------------------------------------------------------------|


Guitar Three (with effects)

E|-----------------------------------|
B|-----------------------------------|
G|-14131413141314131413141314131613--|
D|-----------------------------------| x 4
A|-----------------------------------|
D|-----------------------------------|


____________________________________________________________________________

BREAK


Guitar One

E|-------------------------------------------------------------------------|
B|-5~--5~--9~--------------------------------------------------------------|
G|-6~--4~--9~--------------------------------------------------------------|
D|-7~--6~--11~------------------------------0-----2-----444444444444444\---|
A|-0~--4~--9~-------------------------------0-x8--2-x8--444444444444444\---|
D|-0~---------------------------------------0-----2-----444444444444444\---|
                                          pm.....................

Guitar 2

E|------------------------------------------------------------------|
B|-14----14----14----14----14----14----14----14----14--17-17-17-17--|
G|---1414--1414--14----1414--1414--14----1414--1414--14-------------|
D|------------------------------------------------------------------|
A|------------------------------------------------------------------|
D|------------------------------------------------------------------|

|----------------------------------------|
|-15-x8--14-x8--12-x8--1717171717--------|
|-14-----14-----14-----1414141414--------|
|----------------------------------------|
|----------------------------------------|
|----------------------------------------|

____________________________________________________________________________

CHORUS


Guitar One

E|----------------------------------------------|             |---------|
B|----------------------------------------------|             |---------|
G|----------------------------------------------|             |---------|
D|-0-----2-----4-----2-----0-----2------4-------| x 2  END ON |-4-7-0~--|
A|-0-x8--2-x8--4-x8--2-x8--0-x8--2-x8---4-x16---|             |-4-7-0~--|
D|-0-----2-----4-----2-----0-----2------4-------|             |-4-7-0~--|



Guitar Two 

E|----------------------------------|               |----------------|
B|-------77------77------77---------|               |-99977777-------|
G|-666999--666999--666999--66644422-|     2nd time  |----------------|
D|----------------------------------| x 2 end on -> |----------------|
A|----------------------------------|               |----------------|
D|----------------------------------|               |----------------|

THEN (w/ delay and reverb)

E|-------------------------------------------------|          
B|-------17------17--------------15-14-12h14-10h12-|          
G|-13-14---13-14-----14-14-14-14-------------------|          
D|-------------------------------------------------| x 2 
A|-------------------------------------------------|          
D|-------------------------------------------------|          


THEN

E|-171717161616-----171717161616-----171717161616--------------------------|
B|-------------1717-------------1717-------------1717-1515151414141212-----|
G|----------------------------------------------------------------------14~|
D|-------------------------------------------------------------------------|
A|-------------------------------------------------------------------------|
D|-------------------------------------------------------------------------|

____________________________________________________________________________

ENDING


|-----------------------------|
B|-5------5-----9-------5-----|
G|-6------4-----9-------4-----|
D|-7-x8---6-x8--11-x8---6-x8--| x 1.5 end on the 3rd chord.
A|-0------4-----9-------4-----|
D|-0--------------------------|
                                                                        

____________________________________________________________________________


So thats it.

Please give feedback.
Best song to play with a band, or just a few mates with acoustics...
            
Submit corrections


        Where The City Meets The Sea lessons Hard to play? Try these video lessons and learn fast Where The City Meets The Sea lessons
        
↑ Back to top | Tablatures and chords for acoustic guitar and electric guitar, ukulele, drums are parodies/interpretations of the original songs. You may use it for private study, scholarship, research or language learning purposes only