» » »

The Courteeners - Not Nineteen Forever Tabs

Artists:  A B C D E F G H I J K L M N O P Q R S T U V W X Y Z # 

Not Nineteen Forever Tabs

(ver. 1) Click to play this song!
The Courteeners
 Rating:
4/5 (13 votes)


 Not Nineteen Forever lessons Tabs too difficult? Try these video lessons and learn fast
 
                -------------------------------------------------------------------------------
                Not Nineteen Forever (Acoustic) - The Courteeners
-------------------------------------------------------------------------------

This is the acoustic version of the song that can be found on the two disc release of 
Jude. It's so beautiful its unbelievable.

Tuning: Tuned down half a step.


Intro/Verse 1/Chorus
(Strumming varied a bit each time, you'll get what i mean)
   A                                D
e|-0-0-0-0-0--0-0-0-0-0-0-0-0--0-0--2-2-2-0--0-0-0-0-2-0--0-0-|
B|-2-2-2-2-2--2-2-2-3-3-3-3-2--2-2--3-3-3-3--3-3-3-2-3-3--3-3-|
G|-2-2-2-2-2--2-2-2-2-2-2-2-2--2-2--2-2-2-2--2-2-2-3-2-2--2-2-|
D|-2-2-2-2-2--2-2-2-2-2-2-2-2--2-2--0-0-0-0--0-0-0-0-0-0--0-0-|
A|-0-0-0-0-0--0-0-0-0-0-0-0-0--0-0--0-0-0-0--0-0-0-0-0-0--0-0-|
E|------------------------------------------------------------|


Break
(Picking within the chords of the electric version if that makes it any easier)
e|---5-----7-5---5----5-----7-5---5----------5--------------5-----|
B|-----5----------------5-----------7---7-5----5---7---7-5----5---|
G|-6-----6-----6----7-----7-----7-----7----------7---7----------7-| x2
D|----------------------------------------------------------------|
A|----------------------------------------------------------------|
E|----------------------------------------------------------------|


Verse 2
(Tap the body of the guitar for the muted bit)
   A                           D
e|-0--------------0------x------2-2-2-0--0-0-0-0-2-0--0-0-|
B|-2--------------3------x------3-3-3-3--3-3-3-2-3-3--3-3-|
G|-2--------------2------x------2-2-2-2--2-2-2-3-2-2--2-2-|
D|-2--------------2------x------0-0-0-0--0-0-0-0-0-0--0-0-|
A|-0--------------0------x------0-0-0-0--0-0-0-0-0-0--0-0-|
E|-----------------------x--------------------------------|

(then back into the regular verse riff, except final time when you do this)

   A                                D
e|-0-0-0-0-0--0-0-0-0-0-0-0-0--0-0--2------------------2--2-2-|
B|-2-2-2-2-2--2-2-2-3-3-3-3-2--2-2--3------------------3--3-3-|
G|-2-2-2-2-2--2-2-2-2-2-2-2-2--2-2--2------------------2--2-2-|
D|-2-2-2-2-2--2-2-2-2-2-2-2-2--2-2--0------------------0--0-0-|
A|-0-0-0-0-0--0-0-0-0-0-0-0-0--0-0--0------------------0--0-0-|
E|------------------------------------------------------------|


Chorus
(Same as previously, except last time (again) when you do this)

   A                                D
e|-0-0-0-0-0--0-0-0-0-0-0-0-0--0-0--2---2---2---2---2--2---|
B|-2-2-2-2-2--2-2-2-3-3-3-3-2--2-2--3---3---3---3---3--3-0-|
G|-2-2-2-2-2--2-2-2-2-2-2-2-2--2-2--2---2---2---2---2--2-0-|
D|-2-2-2-2-2--2-2-2-2-2-2-2-2--2-2--0---0---0---0---0--0-0-|
A|-0-0-0-0-0--0-0-0-0-0-0-0-0--0-0--0-------0-------0--0-0-|
E|---------------------------------------------------------|


Bridge
e|---0---0-0---0-0---2---2-2---------222--2-2---2--2--2-0-2-|
B|-x-2-x-2-2---2-2-x-3-x-3-3-------x-333--3-3---3--3--3-3-3-|
G|-x-2-x-2-2---2-2-x-4-x-4-4-------x-222--2-2---2--2--2-2-2-|
D|-x-2-x-2-2---2-2-x-4-x-4-4-------x-000--0-0---0--0--0-0-0-|
A|-x-0-x-0-0---0-0-x-2-x-2-2-------x-000--0-0---0--0--0-0-0-|
E|----------------------------------------------------------|

e|---0---0-0---0-0---2---2-2---------222--2-----2-----2-----|
B|-x-2-x-2-2---2-2-x-3-x-3-3-------x-333--3-----3-----3-----|
G|-x-2-x-2-2---2-2-x-4-x-4-4-------x-222--2-----2-----2-----|
D|-x-2-x-2-2---2-2-x-4-x-4-4-------x-000--0-----0-----0-----|
A|-x-0-x-0-0---0-0-x-2-x-2-2-------x-000--0-----0-----0-----|
E|----------------------------------------------------------|


Chorus (w/Piano)
(Same chords as previous choruses but with continuous downward strumming and lightly 
muted, then back into regular strumming for final chorus)


Outro

   A                                D
e|-0-0-0-0-0--0-0-0-0-0-0-0-0--0-0--2-------0h2-0-----0--------0-|
B|-2-2-2-2-2--2-2-2-3-3-3-3-2--2-2--3-------------3-0-2--------2-|
G|-2-2-2-2-2--2-2-2-2-2-2-2-2--2-2--2-----------------2--------2-|
D|-2-2-2-2-2--2-2-2-2-2-2-2-2--2-2--0-----------------2--------2-|
A|-0-0-0-0-0--0-0-0-0-0-0-0-0--0-0--0-----------------0--------0-|
E|---------------------------------------------------------------|

enjoy :)


| /  slide up
| \  slide down
| h  hammer-on
| p  pull-off
| ~  vibrato
| +  harmonic
| x  Mute note
===============================================================================
            
Submit corrections



        Not Nineteen Forever lessons Hard to play? Try these video lessons and learn fast Not Nineteen Forever lessons
        
↑ Back to top | Tablatures and chords for acoustic guitar and electric guitar, ukulele, drums are parodies/interpretations of the original songs. You may use it for private study, scholarship, research or language learning purposes only