» » »

The Blue Van - Silly Boy Tabs

Artists:  A B C D E F G H I J K L M N O P Q R S T U V W X Y Z # 

Silly Boy Tabs

(ver. 1) Click to play this song!
The Blue Van
 Rating:
4.5/5 (8 votes)

 Silly Boy lessons Tabs too difficult? Try these video lessons and learn fast
 
                Okay here it is, I know a lot of people wanted this tab(even me) so i decided
to make an attempt at it. So here you are and i hope you like it.



*I also want to thank podawk for the help and the corrections


h - Hammer on
p - Pull off
/ - slide down (or its just the end of the measure)
\ - Slide up


Intro

Gtr 1         3nd time drums join

     E			     	x3
/---------------------------------------|
/---------------------------------------|
/----9-----9-----9------9--9--9--9------|
/----9-----9-----9------9--9--9--9------|
/----7-----7-----7------7--7--7--7------|
/---------------------------------------|
/*On the second and third time both guitars should do
/ the first 3 notes of Gtr 1
/
/                       (The last 4 notes are
/                         basically sixteenth notes)
/Gtr 2			x3
/-----------------------------------\---|
/-----------------------------------\---|(beat 1 of the next Measure)
/-----------------------------------\-9-|
/-----------------------9--9--11--9-\---|
/-----------------------------------\---|
/-----------------------------------\---|

Gtr 1
/-----------------------------\---------------------------------------|
/-----------------------------\---------------------------------------|
/------9---9---9-----9-9-9-9--\-11\13~~---13p11-/9-11~~~--11-9-----9--|
/------9---9---9-----9-9-9-9--\---------------------------------11----|
/------7---7---7-----7-7-7-7--\---------------------------------------|
/-----------------------------\---------------------------------------|
/
/
/Gtr 2
/-----------------------------\---------------------------------------|
/-----------------------------\---------------------------------------|
/------9---9---9-----9-9-11-9-\-11\13~~---13p11-/9-11~~~--11-9-----9--|
/------9---9---9--------------\---------------------------------11----|
/------7---7---7--------------\---------------------------------------|
/-----------------------------\---------------------------------------|


Gtr 1
/-----------------------------\---------------------------------------|
/-----------------------------\-10\12~~---12p10-/9-10~~~--10-9----10--|
/------9---9---9-----9-9-9-9--\--------------------------------11-----|
/------9---9---9-----9-9-9-9--\---------------------------------------|
/------7---7---7-----7-7-7-7--\---------------------------------------|
/-----------------------------\---------------------------------------|
/
/
/Gtr 2
/-----------------------------\---------------------------------------|
/-----------------------------\---------------------------------------|
/------9---9---9-----9-9-11-9-\-11\13~~---13p11-/9-11~~~--11-9-----9--|
/------9---9---9--------------\---------------------------------11----|
/------7---7---7--------------\---------------------------------------|
/-----------------------------\---------------------------------------|

Verse 1, 2, and 3

I might be wrong but I might be right, Anyhow I know I tried
I better leave, I better leave, I better stop

I like her taste when it fills my soul, I'll tell you something I've never told anyone, 
anyone, not anyone

Everyone's got a bleeding heart, I don't know where or when to start
I better bleed, I better bleed, I better stop
I better bleed, I better bleed, I better stop

(Starts at 0:20)

Gtr 1
/----------------------------------|---------------------------|
/----------------------------------|---------------------------|
/------9---9---9--------9-9-9-9----|--9---9---9------9-9-9-9---|
/------9---9---9--------9-9-9-9----|--9---9---9------9-9-9-9---|
/------7---7---7--------7-7-7-7----|--7---7---7------7-7-7-7---|
/----------------------------------|---------------------------|
/      S   S   S   (I think you get the point that there all Staccato)
/
/
/Gtr 2
/-----------------------------------\--------------------------|
/-----------------------------------\--------------------------|
/------(9)(second and third time)---\-9------------------------|
/-----------------------9-9-11-9----\--------------9-9-11-9----|
/-----------------------------------\--------------------------|
/-----------------------------------\--------------------------|

Gtr 1
/---------------------------------------\--------------------------------|
/---------------------------------------\--------------------------------|
/-11\13~~---13p11-/9-11~~~--11-9-----9--\----9---9---9--------9-9-9-9----|
/---------------------------------11----\----9---9---9--------9-9-9-9----|
/---------------------------------------\----7---7---7--------7-7-7-7----|
/---------------------------------------\--------------------------------|
/
/
/
/
/Gtr 2
/
/---------------------------------------\--------------------------------|
/---------------------------------------\--------------------------------|
/-11\13~~---13p11-/9-11~~~--11-9-----9--\----9---------------------------|
/---------------------------------11----\---------------------9-9-11-9---|
/---------------------------------------\--------------------------------|
/---------------------------------------\--------------------------------|

Third Time(or third verse) add to the above section this lending riff
(0:51)
Gtr 1
/---------------------------------------/------------|
/-10\12~~---12p10-/9-10~~~--10-9----10--/------------|
/--------------------------------11-----/--9--9--9/--|
/---------------------------------------/--9--9--9/--|
/---------------------------------------/--7--7--7/--|
/---------------------------------------/------------|
/
/
/Gtr 2
/---------------------------------------/------------|
/---------------------------------------/------------|
/-11\13~~---13p11-/9-11~~~--11-9-----9--/--9--9--9/--|
/---------------------------------11----/--9--9--9/--|
/---------------------------------------/--7--7--7/--|
/---------------------------------------/------------|


Chorus 1

		I'm not sure about strumming here
		just do what ever fits you
Gtr 1 & 2				x8
---------------------------------| 	Silly boys
---------------------------------| 	You ran away
----9------9---------------------| 	Your unemployed
----9------9------7------9-------| 	You'd waste away
----7------7------7------9-------|
------------------5------7-------|


(1:15)
Silly boys you run away to  far             Remember where you are
---------------------|---------------------|---------------------|
---------------------|---------------------|---------------------|
--6---6---8---8------|--9---9--------------|--9---9---8---8------|
--6---6---8---8------|--9---9---6---6------|--9---9---8---8------|
--4---4---6---6------|--7---7---6---6------|--7---7---6---6------|
---------------------|----------4---4------|---------------------|


Ending of the Chorus 1 and Verse 4, 5

Life is good, It's what I see that
Makes me want to disagree
I better leave, I better leave, I better not

You might be wrong cause you know I'm right
If you lose your way you just follow mine
I better leave, I better leave, I better stop
I better leave, I better leave, I better stop

(1:22)
Gtr 1
/----------------------------------|---------------------------|
/----------------------------------|---------------------------|
/------9---9---9--------9-9-9-9----|--9---9---9------9-9-9-9---|
/------9---9---9--------9-9-9-9----|--9---9---9------9-9-9-9---|
/------7---7---7--------7-7-7-7----|--7---7---7------7-7-7-7---|
/----------------------------------|---------------------------|
/      S   S   S   (I think you get the point that there all Staccato)
/
/
/Gtr 2
/-----------------------------------\--------------------------|
/-----------------------------------\--------------------------|
/------(9)(second time)-------------\-9------------------------|
/-----------------------9-9-11-9----\--------------9-9-11-9----|
/-----------------------------------\--------------------------|
/-----------------------------------\--------------------------|

Gtr 1
/---------------------------------------\--------------------------------|
/---------------------------------------\--------------------------------|
/-11\13~~---13p11-/9-11~~~--11-9-----9--\----9---9---9--------9-9-9-9----|
/---------------------------------11----\----9---9---9--------9-9-9-9----|
/---------------------------------------\----7---7---7--------7-7-7-7----|
/---------------------------------------\--------------------------------|
/
/
/
/
/Gtr 2
/
/---------------------------------------\--------------------------------|
/---------------------------------------\--------------------------------|
/-11\13~~---13p11-/9-11~~~--11-9-----9--\----9---------------------------|
/---------------------------------11----\---------------------9-9-11-9---|
/---------------------------------------\--------------------------------|
/---------------------------------------\--------------------------------|

Third Time(or fifth verse) add to the above section this ending riff
(1:52)
Gtr 1
/---------------------------------------/------------|
/-10\12~~---12p10-/9-10~~~--10-9----10--/------------|
/--------------------------------11-----/--9--9--9/--|
/---------------------------------------/--9--9--9/--|
/---------------------------------------/--7--7--7/--|
/---------------------------------------/------------|
/
/
/Gtr 2
/---------------------------------------/------------|
/---------------------------------------/------------|
/-11\13~~---13p11-/9-11~~~--11-9-----9--/--9--9--9/--|
/---------------------------------11----/--9--9--9/--|
/---------------------------------------/--7--7--7/--|
/---------------------------------------/------------|


Chorus 2

Gtr 1 & 2				x8
---------------------------------| 	Silly boys
---------------------------------| 	You ran away
----9------9---------------------| 	Your unemployed
----9------9------7------9-------| 	You'd waste away
----7------7------7------9-------|
------------------5------7-------|

(2:16)
Silly boys you run away to  far             Remember where you are
---------------------|---------------------|---------------------|
---------------------|---------------------|---------------------|
--6---6---8---8------|--9---9--------------|--9---9---8---8------|
--6---6---8---8------|--9---9---6---6------|--9---9---8---8------|
--4---4---6---6------|--7---7---6---6------|--7---7---6---6------|
---------------------|----------4---4------|---------------------|


Silly boys you run away to  faa-aa-ar     Remember where you are
---------------------|---------------------|-------------------|
---------------------|---------------------|-------------------|
--8---8---9---9------|--9---8---6---4------|--6-----8-6-8------|
--8---8---9---9------|--9---8---6---4------|--6-----8-6-8------|
--6---6---7---7------|--7---6---4---2------|--4-----6-4-6------|
---------------------|---------------------|-------------------|
(I'm not excatly too sure about this mesure)

    are
Gtr 1
/---------------------|
/---------------------|
/-----9---------------|
/-----9---------------|
/-----7---------------|
/---------------------|
/
/
/
/Bridge
/
/Gtr 2 (clean)
/
/	You run away			Your unemployed
/------------------------------|-------------------------------------|
/------9--------9-----7--------|-----9----------9------7----------7--|
/------------9------------9----|-------------9-----------------9-----|
/------------------------------|----------9-----------------9--------|
/------------------------------|-------------------------------------|
/------------------------------|-------------------------------------|

Gtr 2
					  Gtr 1 & 2(w/distortion again)
You'd waste away
-----------------------------------|-------------------------------------|
------9---------9------7--------7--|-----9-------------------------------|
-------------9---------------9-----|---------------6\---------8----------|
----------9---------------9--------|---------------6\---------8----------|
-----------------------------------|---------------4\---------6----------|
-----------------------------------|-------------------------------------|

Chorus 3

Gtr 1 & 2		x8
---------------------------------| 	Silly boys	   x2
---------------------------------| 	You ran away
----9------9---------------------| 	Your unemployed
----9------9------7------9-------| 	You'd waste away
----7------7------7------9-------|
------------------5------7-------|


Outro (3:02)

Gtr 1

     E
/----------------------------------|---------------------------|
/----------------------------------|---------------------------|
/------9---9---9--------9-9-9-9----|--9---9---9------9-9-9-9---|
/------9---9---9--------9-9-9-9----|--9---9---9------9-9-9-9---|
/------7---7---7--------7-7-7-7----|--7---7---7------7-7-7-7---|
/----------------------------------|---------------------------|
/
/
/
/Gtr 2
/-----------------------------------\--------------------------|
/-----------------------------------\--------------------------|
/-----------------------------------\-9------------------------|
/-----------------------9-9-11-9----\--------------9-9-11-9----|
/-----------------------------------\--------------------------|
/-----------------------------------\--------------------------|

Gtr 1

---------------------------------------\------------------------------\
---------------------------------------\------------------------------\
----9-----9-----9------9--9--9--9------\--9---9---9------9-9-9-9------\
----9-----9-----9------9--9--9--9------\--9---9---9------9-9-9-9------\
----7-----7-----7------7--7--7--7------\--7---7---7------7-7-7-7------\
---------------------------------------\------------------------------\


Gtr 2

/---------------------------------------\--------------------------------|
/---------------------------------------\--------------------------------|
/-11\13~~---13p11-/9-11~~~--11-9-----9--\----------------9-11-9----------|
/---------------------------------11----\-----------------------12-------|
/---------------------------------------\--------------------------------|
/---------------------------------------\--------------------------------|

Gtr 1
-----
-----
--9--
--9--
--7--
-----

Gtr 2

-------|
-------|
-9-----|
---11--|
-------|
-------|


And there you have it.
            
Submit corrections


        Silly Boy lessons Hard to play? Try these video lessons and learn fast Silly Boy lessons
        
↑ Back to top | Tablatures and chords for acoustic guitar and electric guitar, ukulele, drums are parodies/interpretations of the original songs. You may use it for private study, scholarship, research or language learning purposes only