» » »

The Band - Tears Of Rage Bass

Artists:  A B C D E F G H I J K L M N O P Q R S T U V W X Y Z # 

Tears Of Rage Bass

(ver. 1) Click to play this song!
The Band
 Rating:
4/5 (4 votes)


 Tears Of Rage lessons Tabs too difficult? Try these video lessons and learn fast
 
                199X tabbed this song on his Music From Big Pink Album tab, but there wasn't a 
copy for just the song. This work is all his.

120BPM, 4/4

Intro

|-----------|---------|-----------|-----|
|--------3--|---------|-----------|-----|
|-----3-----|---------|-3------3--|-----|
|-----------|---------|-----------|-----|

Verse

|-----------|-----------|-----------|-----------|
|--------3--|-----2-----|-----------|-----------|
|-----3-----|--------5--|-3----2----|-----------|
|-----------|-----------|-----------|-5----3----|

|-----------|-------------|-----------|------------|
|-----------|-------------|-----------|------------|
|-----------|-------3--4--|-5---------|-5----3-----|
|-1-------0-|-1--5--------|---------5-|---------5--|

|-----------|------------|-----------|------------|
|-----------|------------|-3---------|-3----2-----|
|-1-------x-|-1----5--3--|---------3-|---------5--|
|-----------|------------|-----------|------------|

|-----------|-------------|-5---------|-5----|
|-----------|------2-3-5--|---------5-|------|
|-3-------0-|-3-----------|-----------|------|
|-----------|-------------|-----------|------|

|-----------|-----------|-----------|-----------|
|--------3--|-----2-----|-----------|-----------|
|-----3-----|--------5--|-3----2----|-----------|
|-----------|-----------|-----------|-5----3----|

|-----------|-------------|-----------|------------|
|-----------|-------------|-----------|------------|
|-----------|-------3--4--|-5---------|-5----3-----|
|-1-------0-|-1--5--------|---------5-|---------5--|

|-----------|------------|-----------|-------------|
|-----------|------------|-3---------|-3-----------|
|-1-------x-|-1----5--3--|---------3-|------3------|
|-----------|------------|-----------|---------5-3-|

|-----------|-------------|-5-----5-5--|-----------|
|-----------|------2-x-5--|------------|-----------|
|-3-------0-|-3-----------|------------|-----3--5--|
|-----------|-------------|------------|-----------|

Chorus

|-----------|----------|-----------|------|
|-----------|----------|-7----7----|-7----|
|-7----7----|-7--------|-----------|------|
|-----------|----------|-----------|------|

|-----------|----------|-----------|------|
|-3----3----|-3--------|-----------|------|
|-----------|----------|-3----3----|-3----|
|-----------|----------|-----------|------|

|-----------|----------|-----------|-------------|
|-----------|----------|-7----7----|-5---x-5--5--|
|-7----7----|-7--------|-----------|-------------|
|-----------|----------|-----------|-------------|

|-----------|-----------|
|-3----2----|-----------|
|-----------|-5------5--|
|-----------|-----------|

|-----------|---------|-----------|-----|
|--------3--|---------|-----------|-----|
|-3---------|---------|-3------3--|-----|
|-----------|---------|-----------|-----|

Verse

|-----------|-----------|-----------|-----------|
|--------3--|-----2-----|-----------|-----------|
|-----3-----|--------5--|-3----2----|-----------|
|-----------|-----------|-----------|-5----3----|

|-----------|-------------|-----------|-------------|
|-----------|-------------|-----------|-------------|
|-----------|-------3--4--|-5---------|-5----5-3----|
|-1-------0-|-1--5--------|---------5-|----------5--|

|-----------|------------|-----------|-------------|
|-----------|------------|-3---------|-3-----------|
|-1-------x-|-1----5--3--|---------3-|----3--------|
|-----------|------------|-----------|-------5--3--|

|-----------|-------------|-5-------5--|-----|
|-----------|------2-x-5--|-------5----|-----|
|-3-------0-|-3-----------|------------|-----|
|-----------|-------------|------------|-----|

|-----------|-----------|-----------|-----------|
|--------3--|-----2-----|-----------|-----------|
|-----3-----|--------5--|-3----2----|-----------|
|-----------|-----------|-----------|-5----3----|

|-----------|-------------|-----------|------------|
|-----------|-------------|-----------|------------|
|-----------|-------3--4--|-5---------|-5----3-----|
|-1-------0-|-1--5--------|---------5-|---------5--|

|-----------|------------|-----------|-------------|
|-----------|------------|-3---------|-3-----------|
|-1-------x-|-1----5--3--|---------3-|------3------|
|-----------|------------|-----------|---------5-3-|

|-----------|-------------|-5-------5--|---/5--------|
|-----------|------2-3-5--|-------5----|-------------|
|-3-------0-|-3-----------|------------|-------3--5--|
|-----------|-------------|------------|-------------|

Chorus

|------------|----------|-----------|------|
|------------|----------|-7----7----|-7----|
|-/7----7----|-7--------|-----------|------|
|------------|----------|-----------|------|

|-----------|----------|-----------|------|
|-3----3----|-3--------|-----------|------|
|-----------|----------|-3----3----|-3----|
|-----------|----------|-----------|------|

|-----------|----------|-----------|--------------|
|-----------|----------|-7----7----|-5---2-5--/5--|
|-7----7----|-7--------|-----------|--------------|
|-----------|----------|-----------|--------------|

|-----------|-----------|
|-3----2----|-----------|
|-----------|-5----5----|
|-----------|-----------|

|-----------|---------|-----------|-----|
|--------3--|---------|-----------|-----|
|-3---------|---------|-3----3----|-----|
|-----------|---------|-----------|-----|

Verse

|-----------|-----------|-----------|-----------|
|--------3--|-----2-----|-----------|-----------|
|-----3-----|--------5--|-3----2----|-----------|
|-----------|-----------|-----------|-5----3----|

|-----------|-------------|-----------|--------------|
|-----------|-------------|-----------|--------------|
|-----------|-------3--4--|-5---------|-5-----5---3--|
|-1-------0-|-1--5--------|---------5-|-----5---5----|

|------------|------------|-----------|-------------|
|------------|------------|-3---------|-3-----------|
|-1------1-x-|-1----5--3--|---------3-|----3--------|
|------------|------------|-----------|-------5--3--|

|-----------|-------------|-5-------5--|-----|
|-----------|------2-3-5--|-------5----|-----|
|-3-------0-|-3-----------|------------|-----|
|-----------|-------------|------------|-----|

|-----------|-----------|-----------|-----------|
|--------3--|-----2-----|-----------|-----------|
|-----3-----|--------5--|-3----2----|-----------|
|-----------|-----------|-----------|-5----3----|

|-----------|-------------|-----------|-------------|
|-----------|-------------|-----------|-------------|
|-----------|-------3--4--|-5---------|-5----5-3----|
|-1-------0-|-1--5--------|---------5-|----------5--|

|-----------|-------------|-----------|-------------|
|-----------|-------------|-3---------|-3-----------|
|-1-------x-|-1----/5--3--|---------3-|----3--------|
|-----------|-------------|-----------|-------5--3--|

|-----------|--------------|-5-------5--|----5--------|
|-----------|-------2-3-5--|-------5----|--5----------|
|-3-------0-|-3---3--------|------------|-------3--5--|
|-----------|--------------|------------|-------------|

Chorus

|-----------|----------|-----------|------|
|-----------|----------|-7----7----|-7----|
|-7----7----|-7--------|-----------|------|
|-----------|----------|-----------|------|

|-----------|----------|-----------|------|
|-3----3----|-3--------|-----------|------|
|-----------|----------|-3----3----|-3----|
|-----------|----------|-----------|------|

|-----------|----------|-----------|--------------|
|-----------|----------|-7----7----|-5---2-5-2-5--|
|-7----7----|-7--------|-----------|--------------|
|-----------|----------|-----------|--------------|

|-------------|-----------|-----------|-----*|
|-3----/3--2--|-----------|--------3--|-----*|
|-------------|-5----5----|-3---------|-----*|
|-------------|-----------|-----------|-----*|
            
Submit corrections



        Tears Of Rage lessons Hard to play? Try these video lessons and learn fast Tears Of Rage lessons
        
↑ Back to top | Tablatures and chords for acoustic guitar and electric guitar, ukulele, drums are parodies/interpretations of the original songs. You may use it for private study, scholarship, research or language learning purposes only