» » »

The Airborne Toxic Event - Papillon Chords

Artists:  A B C D E F G H I J K L M N O P Q R S T U V W X Y Z # 

Papillon Chords

(ver. 1) Click to play this song!
The Airborne Toxic Event
 Rating:
4.3/5 (6 votes)


 Papillon lessons Tabs too difficult? Try these video lessons and learn fast
 
                -----------------------------------------------------------------------------
                       Papillon - The Airborne Toxic event
-----------------------------------------------------------------------------


Tuning: Standard (EADGBe) Capo 2

2 bars of percussion, then Lead Guitar and Viola come in with this:

Intro:
e|--------------------------------------------------------------------|
B|-----7-7-----7-7-----7-----7-7-----7-7-----7-7-----7-----7-7--------|
G|-7-7-----6-6-----7-7---6-6-----7-7-----6-6-----7-7---6-6-----2-2-2-2|
D|--------------------------------------------------------------------|
A|--------------------------------------------------------------------|
E|--------------------------------------------------------------------|

e|--------------------------------------------------------|   
B|--------------------------------------------------------|   
G|-0-0-0-0-2-2-2-2-0-0-0-0-2-2-2-2-0-0-0-0-2-2-2-2-0-0-0-0|   
D|--------------------------------------------------------|
A|--------------------------------------------------------|
E|--------------------------------------------------------|

Lead Guitar and Viola play the intro riff in the background throughout the rest of the song.

Chords used in Verse (All relative to Capo 2):
   C     Cmaj7 Am    Am7
e|-0-----0-----0-----0--
B|-1-----0-----1-----1--
G|-0-----0-----2-----0--
D|-2-----2-----2-----2--
A|-3-----3-----0-----0--
E|-x-----x-----x-----x--

Chords used in Chorus (again, relative to Capo 2):
   Dm  Em  F   G
e|-1---0---1---3
B|-3---0---1---3
G|-2---0---2---0
D|-0---2---3---0
A|-x---2---3---2
E|-x---0---1---3

Verse 1:
          C          Cmaj7   C        Cmaj7
And We're all dressed up, no place to run
   C       Cmaj7    C         Cmaj7
No car, no girl, no pills, no fun
   Am      Am7        Am    Am7
Nothing to do in this empty room
        Am     Am7  Am       Am7
I gotta get my head together soon


C     Cmaj7      C        Cmaj7
Alone again, no plans, no friends
    C      Cmaj7  C         Cmaj7
You come around at half past ten
        Am           Am7     Am    Am7
And say "How are you holding up my friend?
        Am      Am7            Am    Am7
Are you sitting around getting drunk again?"


Chorus 1:
      Dm                              Em
And I hear the desperation of those lines
       F                       G
Wasted hours, all this wasted time

Yeah, I been just fine!

C Cmaj7 C Cmaj7 C Cmaj7 C Cmaj7

Am Am7 Am Am7 Am Am7 Am Am7

Verse 2:
          C       Cmaj7      C    Cmaj7
And we're out the door in an hour more
   C       Cmaj7         C      Cmaj7
We stumble down from the second floor
         Am   Am7     Am  Am7
And we're swaying and braying
   Am         Am7        Am  Am7
We don't know what we're saying

        C       Cmaj7       C      Cmaj7
And you grab my shirt, your way so curt
  C        Cmaj7         C       Cmaj7
I swear to God that this doesn't hurt
         Am         Am7       Am          Am7
When you stare like that, you put on that act
    Am      Am7                Am      Am7
You say something and then you take it back


Chorus 2:
      Dm                                 Em
And I feel as though I've done something wrong
          F                     G
Oh, how I miss you when you are gone


Interlude:
C Cmaj7 C Cmaj7 C Cmaj7 C Cmaj7

Am Am7 Am Am7 Am Am7 Am Am7

C Cmaj7 C Cmaj7 C Cmaj7 C Cmaj7

Am Am7 Am Am7 Am Am7 Am Am7

Dm Em F G

Verse 3:
      C      Cmaj7   C       Cmaj7
And I wish I had the guts to scream
          C             Cmaj7  C         Cmaj7
You know, things aren't always what they seem
         Am   Am7          Am     Am7
When you walk away, I want you to stay
      Am       Am7     Am       Am7
Don't leave me here to pace and pray

          C        Cmaj7   C       Cmaj7
All these nights I burned, hours I turned
      C        Cmaj7 C      Cmaj7
You'd think that by now I'd learned
             Am  Am7      Am         Am7
That you're only what you pretend to be
  Am         Am7      Am      Am7
I guess that was just lost on me

Chorus 3:
            Dm                                   Em
And I can't stand the way you look at me in that dress
        F                         G
Oh Papillon, I might be alright I guess

If I wasn't such a mess

Outro(same chords as verse):

C Cmaj7 C Cmaj7 C Cmaj7 C Cmaj7      Am
                          I'm such a mess
Am7 Am Am7 Am Am7 Am Am7             C
                          I'm such a mess
Cmaj7 C Cmaj7 C Cmaj7 C Cmaj7        Am
                          I'm such a mess
Am7 Am Am7 Am Am7 Am Am7             C
                          I'm such a mess
            
Submit corrections



        Papillon lessons Hard to play? Try these video lessons and learn fast Papillon lessons
        
↑ Back to top | Tablatures and chords for acoustic guitar and electric guitar, ukulele, drums are parodies/interpretations of the original songs. You may use it for private study, scholarship, research or language learning purposes only