» » »

Tegan And Sara - Con Tabs

Artists:  A B C D E F G H I J K L M N O P Q R S T U V W X Y Z # 

Con Tabs

(ver. 2) Click to play this song!
Tegan And Sara
 Rating:
4/5 (8 votes)


 Con lessons Tabs too difficult? Try these video lessons and learn fast
 
                
Capo: 1st fret
Tuning: tune A down to G (eBGDGE)



INTRO:
e|------------------------------------------|
B|------------------------------------------|
G|--0--0--0--0--0--0--0-0-0-0-0-0-0-0-0-0-0-| x2
D|--x--x--x--x--x--x--x-0-0-x-x-x-x-x-x-x-x-|
G|-12-12-12-12-12-11-11-0-0-5-5-5-5-5-7-7-7-|
E|------------------------------------------|



VERSE:
e|-----------------------------------------|
B|-----------------------------------------|
G|--0--0--0--0--0--0--0--0-0-0-0-0-0-0-0-0-| x4
D|--x--x--x--x--x--x--x--x-x-x-x-x-x-x-x-x-|
G|-12-12-12-12-11-11-11-11-5-5-5-5-7-7-7-7-|
E|-----------------------------------------|



PRE-CHORUS:
e|-----------------------------------------|
B|-----------------------------------------|
G|--0--0--0--0--0--0--0--0-0-0-0-0-0-0-0-0-| x4
D|--x--x--x--x--x--x--x--x-x-x-x-x-x-x-x-x-|
G|-12-12-12-12-11-11-11-11-5-5-5-5-7-7-7-7-|
E|-----------------------------------------|



CHORUS:
Coming around...       ...Well nobody...
e|----------------------------------|
B|----------------------------------|
G|--0-0-0-0-0-0-0-0-0-0-0-0-0-0-0-0-|
D|--x-x-x-x-x-x-x-x-x-x-x-x-x-x-x-x-|
G|--5-5-5-5-5-5-5-5-5-5-5-5-5-5-5-5-|
E|----------------------------------|

...Likes to but I really like to...
e|----------------------------------|
B|----------------------------------|
G|--0-0-0-0-0-0-0-0-0-0-0-0-0-0-0-0-|
D|--x-x-x-x-x-x-x-x-x-x-x-x-x-x-x-x-|
G|--7-7-7-7-7-7-7-7-7-7-7-7-7-7-7-7-|
E|----------------------------------|

...Cry
e|----------------------------------|
B|----------------------------------|
G|--0-0-0-0-0-0-0-0-0-0-0-0-0-0-0-0-|
D|--x-x-0-0-x-x-0-0-x-x-0-0-x-x-0-0-|
G|--5-5-0-0-5-5-0-0-5-5-0-0-5-5-0-0-|
E|----------------------------------|



POST-CHORUS:
e|-----------------------------------------|
B|-----------------------------------------|
G|--0-0-0-0-0-0--0--0--0--0--0--0--0-0-0-0-|
D|--x-x-x-x-x-x--x--x--x--x--x--x--x-0-0-0-|
G|--7-7-7-9-9-9-11-11-12-12-12-12-12-0-0-0-|
E|-----------------------------------------|

e|----------------------------------|
B|----------------------------------|
G|--0-0-0-0-0-0-0-0-0-0-0-0-0-0-0-0-|
D|--x-x-x-x-x-x-x-x-x-x-x-x-x-x-x-x-|
G|--5-5-5-5-5-5-5-5-5-5-5-5-5-5-5-5-|
E|----------------------------------|



BRIDGE:

  Encircle me...                       Taken...
e|-----------------------------------------|
B|-----------------------------------------|
G|--0-0-0-0-0-0--0--0--0--0--0--0--0-0-0-0-|
D|--x-x-x-x-x-x--x--x--x--x--x--x--x-0-0-0-|
G|--7-7-7-9-9-9-11-11-12-12-12-12-12-0-0-0-|
E|-----------------------------------------|

...Down...
e|----------------------------------|
B|----------------------------------|
G|--0-0-0-0-0-0-0-0-0-0-0-0-0-0-0-0-|
D|--x-x-x-x-x-x-x-x-x-x-x-x-x-x-x-x-|
G|--5-5-5-5-5-5-5-5-5-5-5-5-5-5-5-5-|
E|----------------------------------|



PART ORDERS:
-Intro
-Verse 1
-Pre-Chorus
-Chorus (x2)
-Post-Chorus
-Verse 2
-Pre-Chorus
-Chorus (x2)
-Post-Chorus
-Bridge (x4)
-Chorus (x2)
-Post Chorus
-Bridge (x4)
            
Submit corrections



        Con lessons Hard to play? Try these video lessons and learn fast Con lessons
        
↑ Back to top | Tablatures and chords for acoustic guitar and electric guitar, ukulele, drums are parodies/interpretations of the original songs. You may use it for private study, scholarship, research or language learning purposes only