» » »

Tegan And Sara - Closer Tabs

Artists:  A B C D E F G H I J K L M N O P Q R S T U V W X Y Z # 

Closer Tabs

(ver. 1) Click to play this song!
Tegan And Sara
 Rating:
4/5 (4 votes)


 Closer lessons Tabs too difficult? Try these video lessons and learn fast
 
                Catchy tune, fun to sing along with, enjoy!

Tuning: Standard


Verse 1

e |--x---1---3---x----------|
B |--x---1---3---x----------|
G |--5---2---4---5----------|
D |--5---3---5---5----------|
A |--3---3---5---3----------|   
E |--x---1---3---x----------|

All I want to get is a little bit closer
All I want to know is, can you come a little closer

Pre-Chorus

e |-x---1---3---x-----------|
B |-x---1---3---x-----------|
G |-5---2---4---5-----------|
D |-5---3---5---5-----------|
A |-3---3---5---3-----------|   
E |-x---1---3---x-----------|

Here comes the breath before we get a little bit closer
Here comes the rush before we touch, come a little closer

e |-x--x---x--3--x---|
B |-x--x---x--3--x---|
G |-9--10--9--4--x---|
D |-x--x---x--5--x---|
A |-7--8---7--5--x---|  
E |-x--x---x--3--x---|

The doors are open, the wind is really blowing
The night sky is changing overhead

Chorus

(Tegan’s Guitar)

e |--1---0---0---x---3---x--3--|
B |--1---1---0---x---3---x--3--|
G |--2---2---0---5---5---5--4--|
D |--3---2---0---5---5---5--5--|
A |--3---0---2---3---4---3--5--|        
E |--1---x---3---x---3---x--3--|

(Ted’s Guitar)

e |-0---0--3--x---3---x---3----|
B |-1---5--3--x---3---x---3----|
G |-2---6--4--5---4---5---4----|
D |-3---7--5--5---5---5---5----|
A |-3---7--5--3---5---3---5----|        
E |-x---x--3--x---3---x---3----|

It’s not just all physical
I’m the type who will get oh so critical
So let’s make things physical
I won’t treat you like you’re oh so typical

Verse 2

All you think of lately is getting underneath me
All i’m dreaming lately is how to get you underneath me
Here comes the heat before we meet a little bit closer
Here comes the spark before the dark, come a little closer

Pre-Chorus

e |-x--x---x--3--x---|
B |-x--x---x--3--x---|
G |-9--10--9--4--x---|
D |-x--x---x--5--x---|
A |-7--8---7--5--x---|  
E |-x--x---x--3--x---|

The lights turned off and the sun if finally setting
The night sky is changing overhead

Chorus

e |-0---0--3--x---3---x---3----|
B |-1---5--3--x---3---x---3----|
G |-2---6--4--5---0---5---4----|
D |-3---7--5--5---0---5---5----|
A |-3---7--5--3---2---3---5----|        
E |-x---x--3--x---3---x---3----|

It’s not just all physical
I’m the type who will get oh so critical
So let’s make things physical
I won’t treat you like you’re oh so typical
I want you close, I want you
I won’t treat you like you’re typical

Bridge (x2)

e |---0------0------------|
B |---1------3------------|
G |---2------4------------|
D |---3------5------------|
A |---3------5------------|     
E |---x------x------------|

Here come the dreams of you and me
Here come the dreams

Chorus 

Outro

e |--x---1---3---x----------|
B |--x---1---3---x----------|
G |--5---2---4---5----------|
D |--5---3---5---5----------|
A |--3---3---5---3----------|   
E |--x---1---3---x----------|


All I want to get is a little bit closer
All I want to know is, can you come a little closer?
            
Submit corrections



        Closer lessons Hard to play? Try these video lessons and learn fast Closer lessons
        
↑ Back to top | Tablatures and chords for acoustic guitar and electric guitar, ukulele, drums are parodies/interpretations of the original songs. You may use it for private study, scholarship, research or language learning purposes only