» » »

Teenage Bottlerocket - Bigger Than Kiss Tabs

Artists:  A B C D E F G H I J K L M N O P Q R S T U V W X Y Z # 

Bigger Than Kiss Tabs

(ver. 2) Click to play this song!
Teenage Bottlerocket
 Rating:
4/5 (4 votes)


 Bigger Than Kiss lessons Tabs too difficult? Try these video lessons and learn fast
 
                -------------------------------------------------------------------------------
                             SONG NAME - Band Name
-------------------------------------------------------------------------------

Tuning: E standard

Pretty close to perfect, comment or email if you find an error.

Solo1

e|---------------------------------------------------------------------------|
B|--12---------------------------------12------------------------------------|
G|-----14-11-----------11---------------14-12-11---------11------------------|
D|------------14-12-14----------12----------------14-12-----14---------------|
A|--------------------------14-14--------------------------------------------|
E|---------------------------------------------------------------------------|

e|---------------------------------------------------------------------------|
B|-12-14-15-14-12-14-15-12-14-15-14-12-----14-12-----------------------------|
G|-----------------------------------------------14--------------------------|
D|---------------------------------------------------------------------------|
A|---------------------------------------------------------------------------|
E|---------------------------------------------------------------------------|

Solo 2/Outro

e|----------------------------------------------------14-12------------------|
B|-12---12--14-15-14-12---12-------12---12-----------------------------------|
G|----14-------------------------14-------14---14----------------------------|
D|---------------------------------------------------------------------------|
A|---------------------------------------------------------------------------|
E|---------------------------------------------------------------------------|

e|---------------------------------------------------------------------------|
B|-12---12---14-15---14-12-12------------------------------------------------|
G|----14--------------------------14--12--11---------------------------------|
D|----------------------------------------------14--12--11-------------------|
A|------------------------------------------------------------14-------------|
E|---------------------------------------------------------------------------|




************************************

| /   slide up
| \   slide down
| h   hammer-on
| p   pull-off
| ~   vibrato
| +   harmonic
| x   Mute note
| b   Bend
| pb  Pre-bend
| br  Bend release
| pbr Pre-bend release
| brb Bend release bend

************************************
            
Submit corrections



        Bigger Than Kiss lessons Hard to play? Try these video lessons and learn fast Bigger Than Kiss lessons
        
↑ Back to top | Tablatures and chords for acoustic guitar and electric guitar, ukulele, drums are parodies/interpretations of the original songs. You may use it for private study, scholarship, research or language learning purposes only