» » »

Tears For Fears - Memories Fade Bass

Artists:  A B C D E F G H I J K L M N O P Q R S T U V W X Y Z # 

Memories Fade Bass

(ver. 1) Click to play this song!
Tears For Fears
 Rating:
4/5 (4 votes)


 Memories Fade lessons Tabs too difficult? Try these video lessons and learn fast
 
                -------------------------------------------------------------------------------
                             Memories Fade - Tears for Fears 
-------------------------------------------------------------------------------

Tuning:

Comment if you have improvements as the chorus may sound differnt to some people 



 (optional live intro)

G|--------------------------------------------------------| 
D|--------------------------------------------------------| x1
A|-------2-----3-----0--------2----3----0----3---3/12~----| 
E|---3---------------------3------------------------------|

Intro

G|------------------|
D|------------------| x1
A|--------7\--------|
E|------------------|

Verse 1

G|---------------------------------------------------------------|
D|--------------------------------------5---7------7---5---------| x5
A|-----------5---7-----7---5-----0----7------0-------------7-----|
E|----0---7---------0---------7----------------------------------|

G|------------------------------------------------| x1
D|--------------------------------------5---7-----|  
A|-----------5---7-----7---5-----0---7------------| 
E|----0---7---------0---------7-------------------|

Chorus 1

G|----------------------4---------------------------|
D|--------------------------------------------------| x1
A|----------------2--2-----3-3---3---3--0-0---0--0--|
E|----3--3----5-5-----------------------------------|

G|----------------------4--------------------------------|
D|-------------------------------------------------------| x1
A|----------------2--2-----3-----0-----3-----0----7\-----|
E|----3--3----5-5----------------------------------------|

Verse 2

G|---------------------------------------------------------------|
D|--------------------------------------5---7------7---5---------| x3
A|-----------5---7-----7---5-----0---7-------0-------------7-----|
E|----0---7---------0---------7----------------------------------|

G|---------------------------------------------------------------|
D|--------------------------------------5---7------------7-------| x1
A|-----------5---7-----7---5-----0----7------------12--7---------|
E|----0---7---------0---------7-----------------5----------------|

G|---------------------------------------------------------------|
D|--------------------------------------5---7------7---5---------| x1
A|-----------5---7-----7---5-----0----7--------------------7-----|
E|---0-0---7-------0-0---------7-----------------5---------------|

G|------------------------------------------------------|
D|---------------------------------------5---7----------| x1
A|-----------5---7-----7---5------0-0----7--------------|
E|---0-0---7-------0-0---------7----------------5-5-----|

G|-------------------------------------------------------|
D|--------------------------------------5---7------------| x2
A|-----------5---7----------------0---7---------0--------|
E|----0---7--------------0-------------------------------|

G|---------------------------------------------------------------|
D|--------------------------------------5---7------7---5---------| x1
A|-----------5---7-----7---5------0---7------0-------------7-----|
E|----0---7---------0---------7----------------------------------|

G|------------------------------------------------| x1
D|--------------------------------------5---7-----|  
A|-----------5---7-----7---5-----0----7-----------| 
E|----0---7---------0---------7-------------------|

Chorus 2

G|----------------------4---------------------------|
D|--------------------------------------------------| x4
A|----------------2--2-----3-3---3-3--0-0---0--0----|
E|----3--3----5-5-----------------------------------|

G|----------------------------------------|
D|----------------------------------------| x1
A|---0---2-3-3---3-3---0-0--0-0----7\-----|
E|-----3----------------------------------|

G|----------------------------------------------------------------------|
D|--------------5---------------7-----------------7---------------------| x1
A|---3-3---3-3----3---0-0--0-0---7-0---3-3---3-3----5---0-0---0-0--7\---|
E|----------------------------------------------------------------------|

Outro

G|-------------------|
D|-------------------| x1
A|---3-----0---------|
E|---------------0---|






| /  slide up
| \  slide down
| h  hammer-on
| p  pull-off
| ~  vibrato
| +  harmonic
| x  Mute note
===============================================================================
            
Submit corrections



        Memories Fade lessons Hard to play? Try these video lessons and learn fast Memories Fade lessons
        
↑ Back to top | Tablatures and chords for acoustic guitar and electric guitar, ukulele, drums are parodies/interpretations of the original songs. You may use it for private study, scholarship, research or language learning purposes only