» » »

Taylor Swift - Mine Bass

Artists:  A B C D E F G H I J K L M N O P Q R S T U V W X Y Z # 

Mine Bass

(ver. 2) Click to play this song!
Taylor Swift
 Rating:
4/5 (4 votes)


 Mine lessons Tabs too difficult? Try these video lessons and learn fast
 
                ======================================================================
|                                                                    |
|                     Taylor Swift - Mine (Bass)                     |
|                                                                    |
======================================================================



Tuning: Drop-D

=========
| Intro |
=========
  +       +       +       +        +       +       +       +
G|--------------------------------|------------9---9---9---9---9---|
D|10--10--10------------------12--|12--12--12----------------------|
A|------------10--10--10--10------|--------------------------------|
D|--------------------------------|--------------------------------|

  +       +       +       +        +       +       +       +
G|--------------------------------|--------------------------------|
D|10--10--10------------------12--|12--12--12--12--12--12--12--12--|
A|------------10--10--10--10------|--------------------------------|
D|--------------------------------|--------------------------------|

  +       +       +       +        +       +       +       +
G|--------------------------------|------------9---9---9---9---9---|
D|10--10--10------------------12--|12--12--12----------------------|
A|------------10--10--10--10------|--------------------------------|
D|--------------------------------|--------------------------------|

  +       +       +       +        +       +       +       +
G|--------------------------------|--------------------------------|
D|10--10--10------------------12--|12--12--12--12--12--12--12--12--|
A|------------10--10--10--10------|--------------------------------|
D|--------------------------------|--------------------------------|

===========
| Verse 1 |
===========
  +       +       +       +        +       +       +       +
G|--------------------------------|------------9---9---9---9---9---|
D|10--10--10------------------12--|12--12--12----------------------|
A|------------10--10--10--10------|--------------------------------|
D|--------------------------------|--------------------------------|

  +       +       +       +        +       +       +       +
G|--------------------------------|--------------------------------|
D|10--10--10------------------12--|12--12--12--12--12--12--12--12--|
A|------------10--10--10--10------|--------------------------------|
D|--------------------------------|--------------------------------|

  +       +       +       +        +       +       +       +
G|--------------------------------|------------9---9---9---9---9---|
D|10--10--10------------------12--|12--12--12----------------------|
A|------------10--10--10--10------|--------------------------------|
D|--------------------------------|--------------------------------|

  +       +       +       +        +       +       +       +
G|--------------------------------|--------------------------------|
D|10--10--10------------------12--|--------------------------------|
A|------------10--10--10--10------|--------------------------------|
D|--------------------------------|--------------------------------|

==============
| Pre-chorus |
==============
  +   +   +   +    +   +   +   +    +   +   +   +    +   +   +   +
G|----------------|----------------|----------------|----------------|
D|------5---------|----------------|------5---------|----------------|
A|3-------------5-|----------------|3-------------5-|----------------|
D|----------------|----------------|----------------|----------------|

  +   +   +   +    +   +   +   +    +   +   +   +    +   +   +   +
G|----------------|----------------|----------------|----------------|
D|------5---------|----------------|109-------------|----------------|
A|3-------------5-|----------------|----1210--------|----------------|
D|----------------|----------------|--------------12|----------------|

============
| Chorus 1 |
============
  +   +   +   +    +   +   +   +    +   +   +   +    +   +   +   +
G|----------------|----------------|----------------|----------------|
D|----------------|----------------|----------------|2---2-----------|
A|3-3-3-3-3-3-3-3-|----------------|5-5-5-5-5-5-5-5-|--------5---5---|
D|----------------|5-5-5-5-5-5-5-5-|----------------|----------------|

  +   +   +   +    +   +   +   +    +   +   +   +    +   +   +   +
G|----------------|----------------|----------------|----------------|
D|----------------|5-5-5-5-5-5-5-5-|----------------|2---2-----------|
A|3-3-3-3-3-3-3-3-|----------------|5-5-5-5-5-5-5-5-|--------5---5---|
D|----------------|----------------|----------------|----------------|

  +   +   +   +    +   +   +   +
G|----------------|----------------|
D|----------------|----------------|
A|3-----3-----3/--|101010----------|
D|----------------|------1010\-----|

===========
| Verse 2 |
===========
  +   +   +   +    +   +   +   +    +   +   +   +    +   +   +   +
G|----------------|----------------|----------------|----------------|
D|------5-5-5-5---|--------2---2---|----------------|----------------|
A|3-3-3---------5-|5-5-5-5---------|3-3-3---------5-|5-5-5-5-5---0-2-|
D|----------------|----------------|------5-5-5-5---|----------5-----|

  +   +   +   +    +   +   +   +    +   +   +   +    +   +   +   +
G|----------------|----------------|----------------|----------------|
D|------5-5-5-5---|--------2---2---|----------------|----------------|
A|3-3-3---------5-|5-5-5-5---------|3-3-3---------5-|5---------------|
D|----------------|----------------|------5-5-5-5---|----------------|

==============
| Pre-chorus |
==============
  +   +   +   +    +   +   +   +    +   +   +   +    +   +   +   +
G|----------------|----------------|----------------|----------------|
D|------5---------|----------------|------5---------|----------------|
A|3-------------5-|------0-5-0-5-0-|3-------------5-|------------0-2-|
D|----------------|----------------|----------------|----------5-----|

  +   +   +   +    +   +   +   +    +   +   +   +    +   +   +   +
G|----------------|----------------|----------------|----------------|
D|------5---------|--------------9-|109-------------|----------------|
A|3-------------5-|--------9-1012--|----12109-------|----------------|
D|----------------|----------------|----------9-1012|--0-0-0-0-0-0---|

============
| Chorus 2 |
============
  +   +   +   +    +   +   +   +    +   +   +   +    +   +   +   +
G|----------------|----------------|----------------|----------------|
D|----------------|----------------|----------------|2---2-----------|
A|3-3-3-3-3-3-3-3-|----------------|5-5-5-5-5-5-5-5-|--------5---5---|
D|----------------|5-5-5-5-5-5-5-5-|----------------|----------------|

  +   +   +   +    +   +   +   +    +   +   +   +    +   +   +   +
G|----------------|----------------|----------------|----------------|
D|----------------|5-5-5-5-5-5-5-5-|----------------|2---2-----------|
A|3-3-3-3-3-3-3-3-|----------------|5-5-5-5-5-5-5-5-|--------5---5---|
D|----------------|----------------|----------------|----------------|

  +   +   +   +    +   +   +   +    +   +   +   +    +   +   +   +
G|----------------|----------------|----------------|----------------|
D|----------------|----------------|----------------|2---2-----------|
A|3-3-3-3-3-3-3-3-|----------------|5-5-5-5-5-5-5-5-|--------5---5---|
D|----------------|5-5-5-5-5-5-5-5-|----------------|----------------|

  +   +   +   +    +   +   +   +    +   +   +   +    +   +   +   +
G|----------------|----------------|----------------|----------------|
D|----------------|5-5-5-5-5-5-5-5-|----------------|2---2-----------|
A|3-3-3-3-3-3-3-3-|----------------|5-5-5-5-5-5-5-5-|--------5---5---|
D|----------------|----------------|----------------|----------------|

  +   +   +   +    +   +   +   +    +   +   +   +    +   +   +   +
G|----------------|----------------|----------------|----------------|
D|------5-5-5-5---|----------------|------5-5-5-5---|----------------|
A|3-3-3---------5-|5-5-5-5-5-5-5-5-|3-3-3---------5-|5-5-5-5-5-5-5-5-|
D|----------------|----------------|----------------|----------------|

==========
| Bridge |
==========
  +   +   +   +    +   +   +   +    +   +   +   +    +   +   +   +
G|----------------|----------------|----------------|----------------|
D|2-2-2-2-2-2-2-2-|----------------|0-0-0-0-0-0-0-0-|0-0-0-9-129-12\-|
A|----------------|3-3-3-3-3-3-3-3-|----------------|----------------|
D|----------------|----------------|----------------|----------------|

  +   +   +   +    +   +   +   +    +   +   +   +    +   +   +   +
G|----------------|----------------|----------------|----------------|
D|2-2-2-2-2-2-2-2-|----------------|----------------|----------------|
A|----------------|3-3-3-3-3-3-3-3-|5-5-5-5-5-5-5-5-|5-5-5-5-5---0-2-|
D|----------------|----------------|----------------|----------5-----|

  +   +   +   +    +   +   +   +    +   +   +   +    +   +   +   +
G|----------------|----------------|----------------|----------------|
D|------5-5-5-5---|----------------|------5-5-5-5---|----------------|
A|3-3-3---------5-|5-5-5-5-5-5-5-5-|3-3-3---------5-|5-5-5-5-5-5-5-5-|
D|----------------|----------------|----------------|----------------|

  +   +   +   +    +   +   +   +    +   +   +   +    +   +   +   +
G|----------------|----------------|----------------|----------------|
D|------5-5-5-5---|----------------|------5-5-5-5-0-|0-0-0-0-0-0-0-0-|
A|3-3-3---------5-|5-5-5-5-5-5-5-5-|3-3-3-----------|----------------|
D|----------------|----------------|----------------|----------------|

  +   +   +   +    +   +   +   +
G|----------------|----------------|
D|109-------------|----------------|
A|----1012--10----|----------------|
D|------------1210|----------------|

============
| Chorus 3 |
============
  +   +   +   +    +   +   +   +    +   +   +   +    +   +   +   +
G|----------------|----------------|----------------|----------------|
D|----------------|----------------|----------------|----------------|
A|----------------|----------------|----------------|----------------|
D|----------------|----------------|----------------|----------------|

  +   +   +   +    +   +   +   +    +   +   +   +    +   +   +   +
G|----------------|----------------|----------------|----------------|
D|----------------|----------------|----------------|----------------|
A|3-3-3-3-3-3-3-3-|------------0-2-|5-5-5-5-5-2-----|----------------|
D|----------------|5-5-5-5-5-5-----|------------5-2-|0-0-0-0-0-0-0---|

  +   +   +   +    +   +   +   +    +   +   +   +    +   +   +   +
G|----------------|----------------|----------------|----------------|
D|----------------|----------------|----------------|2---2-----------|
A|3-3-3-3-3-3-3-3-|----------------|5-5-5-5-5-5-5-5-|--------5---5---|
D|----------------|5-5-5-5-5-5-5-5-|----------------|----------------|

  +   +   +   +    +   +   +   +    +   +   +   +    +   +   +   +
G|----------------|----------------|----------------|----------------|
D|----------------|5-5-5-5-5-5-5-5-|----------------|----------------|
A|3-3-3-3-3-3-3-3-|----------------|5-5-5-5-5-5-5-5-|----------------|
D|----------------|----------------|----------------|0-0-0-0-0-0-0-0-|

  +   +   +   +    +   +   +   +    +   +   +   +    +   +   +   +
G|----------------|----------------|----------------|----------------|
D|----------------|----------------|--------------0-|0-----9-109-----|
A|3-3-3---------5-|5-5-5-5-2---2---|3-3-3-----------|--1012------12\-|
D|------5-5-5-5---|----------------|------5-5-5-5---|----------------|

  +   +   +   +    +   +   +   +    +   +   +   +    +   +   +   +
G|----------------|----------------|----------------|----------------|
D|--------------0-|0-0-0-0-------9-|109-------------|----------------|
A|3-3-3-----------|--------9-1012--|----1210------5-|----------------|
D|------5-5-5-5---|----------------|----------------|----------------|
            
Submit corrections



        Mine lessons Hard to play? Try these video lessons and learn fast Mine lessons
        
↑ Back to top | Tablatures and chords for acoustic guitar and electric guitar, ukulele, drums are parodies/interpretations of the original songs. You may use it for private study, scholarship, research or language learning purposes only