» » »

Taproot - When Bass

Artists:  A B C D E F G H I J K L M N O P Q R S T U V W X Y Z # 

When Bass

(ver. 2) Click to play this song!
Taproot
 Rating:
4/5 (4 votes)


 When lessons Tabs too difficult? Try these video lessons and learn fast
 
                Taproot - When

bass tab


5-stringed bass
G D A E B

   INTRO/VERSO
G-|----------------|------------|-----------|----------------|------------|
D-|-----7---7------|-----5------|-----------|-----7---7------|------------|
A-|---7---7---7----|---5--------|-----------|---7---7---7----|-----5------|
E-|-5-----------5\-|-3-----3\---|-----------|-5-----------5\-|-7-3---3\---|
B-|----------------|------------|-----------|----------------|------------|
                                  variacion                                    

   PRE-CORO
G-|---------------|------------------|-----------------|---------------|
D-|---------------|------------------|-----------2-----|---------------|
A-|--------000000-|--------0---0-----|--------00---0---|--------000000-|
E-|-----32--------|-----32---2---2\0-|-----32----------|-----32--------|
B-|-0-0-----------|-0-0--------------|-0-0-------------|-0-0-----------|
                                                                              

   CORO
G-|--------------|---------------|--------------|------|---------|
D-|--------------|---------------|--------------|------|-----0---|
A-|--------------|---------------|--------------|------|-0-------|
E-|-2222-03-2222-|---------------|-2222-03-2222-|------|---------|
B-|--------------|-0000-0-3-33---|--------------|-000--|---------|
                                                                              

G-|--------------|---------------|--------------|------|
D-|--------------|---------------|--------------|------|
A-|--------------|---------------|--------------|------|
E-|-2222-03-2222-|---------------|-2222-03-2222-|------|
B-|--------------|-0000-0-3-33---|--------------|-000--|
                                                                              

   SOLO
G-|---------------------|--------------------|---|--------------------------|
D-|----------353--------|------------5-----5-|---|--------------------------|
A-|-5-----5------53---3-|-7-----7------5-----|---|--------------------------|
E-|----3------------6---|----3-----3-----3---|---|---------------------3333-|
B-|---------------------|--------------------|---|-3333-5555-3333-0000------|
                                               +                               

Os mando salutos y congratulaciones a El Antoney, Alastorezaga, Al Gato y Al Mozo porque una
vez los he recogido puerta a puerta a todos casi y hemos ido a mi casa, justo empezo a llover
y granizar a lo tara. cuando llegamos al cruce las llantas resbalaban y ellos tuvieron que 
salir a empujar a lo llama, porque yo estaba manejando, y al final llegamos a mi casa a
las 10 pm.

doky2007
            
Submit corrections



        When lessons Hard to play? Try these video lessons and learn fast When lessons
        
↑ Back to top | Tablatures and chords for acoustic guitar and electric guitar, ukulele, drums are parodies/interpretations of the original songs. You may use it for private study, scholarship, research or language learning purposes only