» » »

Superman Is Dead - Jika Kami Bersama Tabs

Artists:  A B C D E F G H I J K L M N O P Q R S T U V W X Y Z # 

Jika Kami Bersama Tabs

(ver. 1) Click to play this song!
Superman Is Dead
 Rating:
4/5 (4 votes)


 Jika Kami Bersama lessons Tabs too difficult? Try these video lessons and learn fast
 
                Song        : Jika Kami Bersama
Album       : Angels And The Outsiders
Artist      : Superman Is Dead

(kunjungi blog yoos untuk request...)


@intro...
e|--------3-------------3-------------3-------------3--------|
B|----------3-------------3-------------3-------------3------|
G|------0-----0-------0-----0-------0-----0-------0-----0----|
D|--------------0-------------0-------------0-0-----------0--|
A|----------------2-------------3----------------------------|
E|--3--------------------------------------------------------|

e|--------3-------------3-------------3--------|
B|----------3-------------3-------------3------|
G|------0-----0-------0-----0-------0-----0----|
D|--------------0-------------0-------------0--|
A|----------------2-------------3--------------|
E|--3------------------------------------------|


@kami disini...
e|-----------------------------------------------|
B|----------------------8p7----------------------|
G|--9-----9-------7---------9-7-9-----9-------7--|
D|--9-------9-----7-------------9-------9-----7--|
A|--7---------7---5-------------7---------7---5--|
E|-----------------------------------------------|


@solo....
e|--/7-7-7---------/7-7-7---------/7-7-7-------------10-10-10--|
B|-------------8--------------8--------------8---/12-----------|
G|---------9p7------------9p7------------9p7-------------------|
D|-------------------------------------------------------------|
A|-------------------------------------------------------------|
E|-------------------------------------------------------------|

e|--/7-7-7---------/7-7-7---------/7-7-7----------------10-10--|
B|-------------8--------------8--------------8---/12-12--------|
G|---------9p7------------9p7------------9p7-------------------|
D|-------------------------------------------------------------|
A|-------------------------------------------------------------|
E|-------------------------------------------------------------|

e|--------------------------------------------------------------------------|
B|--12-12-10-10-8-8-7-7-8-8-7-7-------------8-8-10-10-8-/12-12-12-12-12-12--|
G|------------------------------9-9-7-7-9-9---------------------------------|
D|--------------------------------------------------------------------------|
A|--------------------------------------------------------------------------|
E|--------------------------------------------------------------------------|

e|-----------------------------------------------------------------------|
B|--/12-12-12-12-12-12-12-12-12p10-10p8--10p8---8---10p8---8---10p8------|
G|--------------------------------------------9----------9----------7-9--|
D|-----------------------------------------------------------------------|
A|-----------------------------------------------------------------------|
E|-----------------------------------------------------------------------|


Intro
G Bm C D
G Bm C D

G         D         C         D        
jika kami bersama nyalakan tanda bahaya
G         D         C         D        
jika kami berpesta hening akan terpecah
G         D         C         D        
aku, dia dan mereka memang gila memang beda
G         D         C         D        
tak perlu berpura-pura memang begini adanya

Em        D         Em        D        
dan kami di sini akan terus bernyanyi

G         D         C         D        
dan jika kami bersama nyalakan tanda bahaya
G         D         C         D        
musik akan menghentak, anda akan tersentak
G         D         C         D        
dan kami tahu engkau bosan dijejali rasa yang sama
G         D         C         D        
kami adalah kamu, muda, beda dan berbahaya

G Bm C D
G Bm C D

G                   D        
lepaskan semua belenggu yang melingkari hidupmu
C                   D
berdiri tegak menantang di sana di garis depan
G                   D
aku berteriak lantang untuk jiwa yang hilang
C                   D
untuk mereka yang selalu kita singkirkan

G                   D
ketika tiada tempat lagi untuk berlari
C                   D
ketika tiada orang yang tak kami peduli
G                   D
aku dan dia selalu menunggumu di sini
C             D
angkat sekali lagi

Em        D         Em        D        
kami di sini akan terus bernyanyi

G         D         C         D        
dan jika kami bersama nyalakan tanda bahaya
G         D         C         D        
musik akan menghentak, anda akan tersentak
G         D         C         D        
aku, dia dan mereka memang gila memang beda
G         D         C         D        
aku adalah kamu, kita muda dan berbahaya

G Bm C D
G Bm C D
G Bm C D
G Bm C D

Em        D         Em        D        
kami di sini akan terus bernyanyi

G         D         C         D        
dan jika kami bersama nyalakan tanda bahaya
G         D         C         D        
musik akan menghentak, anda akan tersentak
G         D         C         D        
dan kami tahu engkau bosan dijejali rasa yang sama
G         D         C         D        
kami adalah kamu, muda, beda dan berbahaya

G         D         C         D        
dan jika kami bersama nyalakan tanda bahaya
G         D         C         D        
musik akan menghentak, anda akan tersentak
G         D         C         D        
dan kami tahu engkau bosan dijejali rasa yang sama
G         D         C         D        
kami adalah kamu, muda, beda dan berbahaya

G D C D
G D C D
G D C D
G D C D
G
            
Submit corrections



        Jika Kami Bersama lessons Hard to play? Try these video lessons and learn fast Jika Kami Bersama lessons
        
↑ Back to top | Tablatures and chords for acoustic guitar and electric guitar, ukulele, drums are parodies/interpretations of the original songs. You may use it for private study, scholarship, research or language learning purposes only