» » »

Sugar - A Good Idea Bass

Artists:  A B C D E F G H I J K L M N O P Q R S T U V W X Y Z # 

A Good Idea Bass

(ver. 1) Click to play this song!
Sugar
 Rating:
4/5 (4 votes)


 A Good Idea lessons Tabs too difficult? Try these video lessons and learn fast
 
                I couldn't find any decent tabs for this song so instead of letting it go i made my own.
I Am Sure This Tab Is Completely correct but if you have any Complaints Email me 

G   ------------------------------------|
D   ------------------------------------|
A   ---------3-3-3-3----------3-3-3-3---|
E   3-3-3-3----------5-5-5-5----------2-|


Play this however many times
Then for the bridge

G   -----------------------------------|
D   -----------------------------------|
A   ---------3-3-3-3-------------------|
E   3-3-3-3----------5-----------------|

Play for 3 times then go back to the other riff


Peace out
            
Submit corrections



        A Good Idea lessons Hard to play? Try these video lessons and learn fast A Good Idea lessons
        
↑ Back to top | Tablatures and chords for acoustic guitar and electric guitar, ukulele, drums are parodies/interpretations of the original songs. You may use it for private study, scholarship, research or language learning purposes only