» » »

St Vincent - Birth In Reverse Bass

Artists:  A B C D E F G H I J K L M N O P Q R S T U V W X Y Z # 

Birth In Reverse Bass

(ver. 1) Click to play this song!
St Vincent
 Rating:
4/5 (4 votes)

 Birth In Reverse lessons Tabs too difficult? Try these video lessons and learn fast
 
                INTRO
G||----------------|
D||----------------|
A||----------------|
E||0---0---0---0---|

VERSE

G||----------------|----------------|----------------|----------------|
D||----------------|----------------|----------------|----------------|
A||----------------|2---2---2---2---|----------------|2---2---2---2---|
E||0---0---0---0---|----------------|0---0---0---0---|----------------|

G||----------------|----------------|----------------|----------------|
D||----------------|----------------|----------------|----------------|
A||----------------|------------0/12|----------------|2---2---2---2---|
E||2---2---2---2-4-|5---5---5-------|0---0---0---0---|----------------|

G||----------------|----------------|----------------|----------------|
D||----------------|----------------|----------------|----------------|
A||----------------|2---2---2---2---|----------------|----------------|
E||0---0---0---0---|----------------|2---2---2---2-4-|5---5---5---5---|

CHORUS

G||----------------|----------------|----------------|----------------|
D||----------------|----------------|----------------|----------------|
A||----------------|----------------|----------------|----------------|
E||00000-0-00000-0-|7\------7\------|00000-0-00000-0-|7\------7\------|

G||----------------|----------------|----------------|----------------|
D||----------------|----------------|----------------|----------------|
A||----------------|----------------|----------------|----------------|
E||00000-0-00000-0-|7\------7\------|00000-0-00000-0-|7\------7\------|

SOLO 1

G||----------------|----------------|----------------|----------------|
D||----------------|----------------|----------------|----------------|
A||----------------|----------------|----------------|----------------|
E||0-------0-------|0-------0-------|0-570---0-------|0-------0-------|

VERSE

G||----------------|----------------|----------------|----------------|
D||----------------|----------------|----------------|----------------|
A||----------------|2-----------0/12|----------------|2-2-2-2-2-2-2-2-|
E||0---------------|----------------|0-0-0-0-0-0-0-0-|----------------|

G||----------------|----------------|----------------|----------------|
D||----------------|----------------|----------------|----------------|
A||----------------|2-2-2-2-2-2-2-2-|----------------|----------------|
E||0-0-0-0-0-0-0-0-|----------------|2-2-2-2-2-2-2-4-|5-5-5-5---------|

CHORUS

G||----------------|----------------|----------------|----------------|
D||----------------|----------------|----------------|----------------|
A||----------------|----------------|----------------|----------------|
E||00000-0-00000-0-|7\------7\------|00000-0-00000-0-|7\------7\------|

G||----------------|----------------|----------------|----------------|
D||----------------|----------------|----------------|----------------|
A||----------------|----------------|----------------|----------------|
E||00000-0-00000-0-|7\------7\------|00000-0-00000-0-|7\------7\------|

SOLO 2

G||----------------|----------------|----------------|
D||----------------|----------------|----------------|
A||----------------|----------------|----------------|
E||0-------0-------|0-------0-------|0-------0-------|

CHORUS

G||----------------|----------------|----------------|----------------|
D||----------------|----------------|----------------|----------------|
A||77\-----77\-----|----------------|77\-----77\-----|----------------|
E||----------------|7\------7\------|----------------|7\------7\------|

G||----------------|----------------|----------------|----------------|
D||----------------|----------------|----------------|----------------|
A||77\-----77\-----|----------------|77\-----77\-----|----------------|
E||----------------|7\------7\------|----------------|7\------7\------|

OUTRO

G||----------------|----------------|----------------|----------------|
D||----------------|----------------|----------------|----------------|
A||-----0202----02-|02---0202----02-|02---0202----02-|02---0202----02-|
E||----------0-----|----------0-----|----------------|----------0-----|

G||----------------|----------------|----------------|----------------|
D||----------------|----------------|----------------|----------------|
A||-----0202----02-|02---0202----02-|02---0202----02-|02---0202----02-|
E||----------0-----|----------0-----|-----------0----|----------0-----|

G||----------------|----------------|----------------|----------------|
D||----------------|----------------|----------------|----------------|
A||-----0202----02-|02---0202----02-|02---0202----02-|02---0202----02-|
E||----------0-----|----------0-----|-----------0----|----------0-----|

G||----------------|----------------|
D||----------------|----------------|
A||-----0202----02-|02--------------|
E||----------0-----|----------------|
            
Submit corrections


        Birth In Reverse lessons Hard to play? Try these video lessons and learn fast Birth In Reverse lessons
        
↑ Back to top | Tablatures and chords for acoustic guitar and electric guitar, ukulele, drums are parodies/interpretations of the original songs. You may use it for private study, scholarship, research or language learning purposes only