Home » S » Strokes »

Strokes - Someday Tabs

Artists:  A B C D E F G H I J K L M N O P Q R S T U V W X Y Z # 

Someday Tabs

(ver. 3) Click to play this song!
Strokes
 Rating:
4/5 (4 votes)
                Guitar 2 chords, strumming is easy but listen to get it down
	
     A       D       E
E|---5-------5-------7---
B|---5-------7-------9---
G|---6-------7-------9---
D|---7-------7-------9---
A|---7-------5-------7---
E|---5-------5-------7---


Verse:

   A       D          D          A

E|-5---7------5---7------9---7------7---5----|
B|-5---7------5---7------9---7------7---5----|
G|-6---7------6---7------9---7------7---6----|
D|-7---7------7---7------9---7------7---7----|
A|-------------------------------------------|
E|-------------------------------------------|


Chorus play 4x, end on the e chord last time

   D                                            A

E|-10-13-10------11---------10------------7-----5-------|
B|------------12----12---10----10---------7-----5-------|
G|----------------------------------------7-----6-------|
D|----------------------------------------7-----7-------|
A|------------------------------------------------------|
E|------------------------------------------------------|

Then: bass interlude, then verse & chorus

End song with the A chord
            
Submit corrections

↑ Back to top | Tablatures and chords for acoustic guitar and electric guitar, ukulele, drums are parodies/interpretations of the original songs. You may use it for private study, scholarship, research or language learning purposes only