» » »

Streetlight Manifesto - A Better Place A Better Time Bass

Artists:  A B C D E F G H I J K L M N O P Q R S T U V W X Y Z # 

A Better Place A Better Time Bass

(ver. 3) Click to play this song!
Streetlight Manifesto
 Rating:
4/5 (4 votes)

 A Better Place A Better Time lessons Tabs too difficult? Try these video lessons and learn fast
 
                A Better Place, A Better Time

Standard Tuning

Intro
G-4~--7~--9~---11~--4~--7~--9/7\9-4~-|
D------------------------------------|
A------------------------------------|
E------------------------------------|

G-12~--11~--9~--11~--0~--4~--12~-|
D--------------------------------|
A--------------------------------|
E--------------------------------|

part 1
G--------------------         G---------------------|
D--------------------         D---------------------|
A------22-2------33-3         A------2222-3333-5555-|
E-33-3------00-0----- x2 then E-3333----------------|

part 2
G-----------------------------------------|
D-----------------------------------------|
A-3-33-2------2-3-33-2-----------2~-3~-5~-|
E--------3-33----------3-33-2-0~----------|

part 3
G----------------------|
D----------------------|
A------2222------3333--|
E-3333------0000-------| x4

part 4
G----------------------|
D----------------------|
A------2222-3333-5555--|
E-3333-----------------| x2

part 5
G--------------------|
D--------------------|
A--------------------|
E-3333-2222-00000000-| X1 then back to part 4

part 6 Chorus
G--------------------------------------|
D--------------------------------------|
A----------55555555-77777777-3333-5555-|
E-33333333-----------------------------|

then part 4 again
then chorus again

bridge
G------------------------------------|
D------------------------------------|
A--------55555555-xx-x7777-3333-5555-|
E-xx-x3~-----------------------------|

then part 4 a few times
then chorus (a little syncopated)

last part
G---------------------------------5---7-|
D-------------4---7---------------------|
A------5---55---5---7--9--7--5--3---5---|
E-33-3---3------------------------------|

then
G---------------------------5---7-|
D---------------------------------|
A---------55-5-55-77-7-77-3---5---|
E-33-3-33-------------------------|

end on
G-----
D-----
A-----
E-3~~-
            
Submit corrections


        A Better Place A Better Time lessons Hard to play? Try these video lessons and learn fast A Better Place A Better Time lessons
        
↑ Back to top | Tablatures and chords for acoustic guitar and electric guitar, ukulele, drums are parodies/interpretations of the original songs. You may use it for private study, scholarship, research or language learning purposes only