» » »

Streetlight Manifesto - A Better Place A Better Time Bass

Artists:  A B C D E F G H I J K L M N O P Q R S T U V W X Y Z # 

A Better Place A Better Time Bass

(ver. 2) Click to play this song!
Streetlight Manifesto
 Rating:
4/5 (4 votes)

 A Better Place A Better Time lessons Tabs too difficult? Try these video lessons and learn fast
 
                computer, and I'm pretty sure it's right.
However, I take no credit for this song, as I did not tab it out.
All credit goes to Filippo Frigeri, who appears to be the author of this tablature.
Enjoy!
.
T=ten  E=eleven  W=twelve  F=fourteen  V=fifteen  S=sixteen

Bass Intro
G|W-----E---------9-----E---------W-----E---------9-7-9-7---------|
D|------------------------------------------------------5---------|
A|T-------------------------------T-------------------------------|
E|------7---------8-----T---------------7---------8----(3)--------|

G|W-----E---------9-----E---------------9---------0---W-----------|
D|--------------------------------9-------------------------------|
A|T-----------------------------------------------T(let ring)-----|
E|------7---------8-----T---------7-----8-------------------------|

Verse1
G|----------------------------------------------------------------|
D|--------9-9---9---------T-T---T---------9-9---9---------T-T---T-|
A|T-T---T---------7-7---7---------T-T---T---------7-7---7---------|
E|----------------------------------------------------------------|

G|----------------------------------------------------------------|
D|--------9-9-9-9-T-T-T-T-W-W-W-W---------9-9-9-9-T-T-T-T---------|
A|T-T-T-T-------------------------T-T-T-T-----------------5--5--5-|
E|----------------------------------------------------------------|

G|----------------------------------------------------------------|
D|----------------------------------------------------------------|
A|--------2-2-2-2---------3-3-3-2---------2-2-2-2---------3-3-3-2-|
E|3-3-3-3---------0-0-0-0---------3-3-3-3---------0-0-0-0---------|

G|----------------------------------------------------------------|
D|----------------------------------------------------------------|
A|--------2-2-2-2-3-3-3-3-5-5-5-5---------2-2-2-223-3-3-335-5-5-5-|
E|3-3-3-3-------------------------3-3-3-33------------------------|

G|----------------------------------------------------------------|
D|----------------------------------------------------------------|
A|3-----3-3---2---------------2---3-----3-3---2-------------------|
E|----------------3-----3-3-----------------------3-----3-3---2---|

G|------------------------4---4--4----5---9---5---8---5---3---5---|
D|--------9-------------------------------------------------------|
A|------7---7-2---2----------------3------------------------------|
E|0---------------------------------------------------------------|

Chorus1
G|----------------------------------------------------------------|
D|----------------------------------------------------------------|
A|----------------------------Pause......-------------------------|
E|3\--------------------------------------------------------------|

PostChorus1
G|----------------------------------------------------4-----------|
D|--------------------------------------------------5---5---------|
A|----2-5-2-2-2-2---------3-3-3-3-----2-5-2-2-2-2---------3-3-3-3-|
E|3-3-------------0-0-0-0---------3-3-------------0---------------|

G|--------------------5-------------------------------4-----------|
D|------------------5---5---------------------------5---5---------|
A|----2-5-2-2-2-2---------3-3-3-3-----2-5-2-2-2-2---------3-3-3-3-|
E|3-3-------------0---------------3-3-------------0---------------|

G|----------------------------------------------------------------|
D|----------------------------------------------------------------|
A|----------------------------Pause......-------------------------|
E|3\--------------------------------------------------------------|

Verse2
G|----------------------------------------------------------------|
D|----------------------------------------------------------------|
A|--------2-2-2-2-3-3-3-3-5-5-5-5---------2-2-2-2-3-3-3-3-5-5-5-5-|
E|3-3-3-3-------------------------3-3-3-3-------------------------|

G|----------------------------------------------------------------|
D|----------------------------------------------------------------|
A|------------------------5-5-5-5---------2-2-2-2-3-3-3-3-5-5-5-5-|
E|3-3-3-3-2-2-2-2-0-0-0-0---------3-3-3-3-------------------------|

Bridge1
G|----------------------------------------------------------------|
D|----------------------------------------------------------------|
A|---------------------------...but i hope so bad that------------|
E|3\-----------------------------------you bathe and hunt...------|

G|----------------------------------------------------------------|
D|----------------------------------------------------------------|
A|--------2-2-2-2-3-3-3-3-5-5-5-5---------2-2-2-2-3-3-3-3-5-5-5-5-|
E|3-3-3-3-------------------------3-3-3-3-------------------------|

G|----------------------------------------------------------------|
D|----------------------------------------------------------------|
A|------------------------5-5-5-5---------2-2-2-2-3-3-3-3-5-------|
E|3-3-3-3-2-2-2-2-0-0-0-0---------3-3-3-3-------------------------|

Verse3
G|----------------------------------------------------------------|
D|----------------------------------------------------------------|
A|--------2-2-2-2-3-3-3-3-5-5-5-5---------2-2-2-2-3-3-3-3-5-5-5-5-|
E|3-3-3-3-------------------------3-3-3-3-------------------------|

G|----------------------------------------------------------------|
D|----------------------------------------------------------------|
A|------------------------5-5-5-5---------2-2-2-2-3-3-3-3-5-5-5-5-|
E|3-3-3-3-2-2-2-2-0-0-0-0---------3-3-3-3-------------------------|

G|----------------------------------------------------------------|
D|----------------------------------------------------------------|
A|--------2-2222223-3333335-555555--------2-2222223-3333335-555555|
E|3-333333------------------------3-333333------------------------|

G|----------------------------------------------------------------|
D|----------------------------------------------------------------|
A|------------------------5-5-5-5---------2-2-2-2-3-3-3-3-5-5-5-5-|
E|3-3-3-3-2-2-2-2-0-0-0-0---------3-3-3-3-------------------------|

Bridge2
G|----------------------------------------------------------------|
D|----------------------------------------------------------------|
A|----7---------7-3---3-----3---5-----7---------7-3---3-----3---5-|
E|0---------0---------------------0---------0---------------------|

G|----------------------------------------------------------------|
D|----------------------------------------------------------------|
A|--------2-------3-------5---------------2-2-2-2-3-3-3-3-5-5-5-5-|
E|0-------------------------------0-0-0-0-------------------------|

G|--------------------------------|
D|--------------------------------|
A|5-5-5-5-5-5-5-5-5---------------|
E|--------------------------------|

Chorus2 (x2)
G|----------------------------------------------------------------|
D|----------------------------------------------------5-------7---|
A|----------------5---5-5-5-5-5-9-7---7-7-7-7-7-5-3-5---5-3-5---5-|
E|3---3-3-3-3-3-3-------------------------------------------------|

G|----------------------------------------------------------------|
D|----------------------------------------------------------------|
A|----------------5-----5-5-----------------------3-------5-------|
E|3-----3-3-----------------------0-----0-0---0-------------------|

G|----------------------------------------------------------------|
D|----------------------------------------------------5-----------|
A|----------------5---5-5-5-5-5-9-7---7-7-7-7-7-5-3-5---7-5-------|
E|3---3-3-3-3-3-3-------------------------------------------------|


Verse4
G|----------------------------------------------------------------|
D|----------------------------------------------------------------|
A|--------2-2-2-2-3-3-3-3-5-5-5-5---------2-2-2-2-3-3-3-3-5-5-5-5-|
E|3-3-3-3-------------------------3-3-3-3-------------------------|

G|----------------------------------------------------------------|
D|----------------------------------------------------------------|
A|------------------------5-5-5-5---------2-2-2-2-3-3-3-3-5-5-5-5-|
E|3-3-3-3-2-2-2-2-0-0-0-0---------3-3-3-3-------------------------|

G|----------------------------------------------------------------|
D|----------------------------------------------------------------|
A|--------2-2-2-2-3-3-3-3-5-5-5-5---------2-2-2-2-3-3-3-3-5-5-5-5-|
E|3-3-3-3-------------------------3-3-3-3-------------------------|

G|----------------------------------------------------------------|
D|----------------------------------------------------------------|
A|T-T-T-T-9-9-9-9-7-7-7-7-5-5-5-5---------2-2-2-2-3-3-3-3-5-5-5-5-|
E|--------------------------------3-3-3-3-------------------------|

Bridge3
G|----------------------------------------------------------------|
D|----------------------------------------------------------------|
A|----7---------7-3---3-----3---5-----7---------7-3---3-----3---5-|
E|0---------0---------------------0---------0---------------------|

G|----------------------------------------------------------------|
D|----------------------------------------------------------------|
A|--------2-------3-------5---------------2-2-2-2-3-3-3-3-5-5-5-5-|
E|0-------------------------------0-0-0-0-------------------------|

G|--------------------------------|
D|--------------------------------|
A|5-5-5-5-5-5-5-5-5---------------|
E|--------------------------------|

Chorus3 (x2)
G|----------------------------------------------------------------|
D|----------------------------------------------------5-------7---|
A|----------------5---5-5-5-5-5-9-7---7-7-7-7-7-5-3-5---5-3-5---5-|
E|3---3-3-3-3-3-3-------------------------------------------------|

G|----------------------------------------------------------------|
D|----------------------------------------------------------------|
A|----------------5-----5-5---5-------------------3-3-3-3-5-5-5-5-|
E|3-----3-3---3-------------------0-----0-0---0-------------------|

G|----------------------------------------------------------------|
D|----------------------------------------------------5-----------|
A|----------------5---5-5-5-5-5-9-7---7-7-7-7-7-5-3-5---7-5-------|
E|3---3-3-3-3-3-3-------------------------------------------------|

Bridge4
G|----------------------------------------------------------------|
D|----------------------------------------------------------------|
A|----------------2-----2-2-----------------------3-3-3-3-3--2--0-|
E|3-3---3-3-----------------------0-----0-0-----------------------|

G|----------------------------------------------------------------|
D|----------------------------------------------------------------|
A|----------------2-------2-----------------------3-------3--2--0-|
E|3-3%%%3-3----------------------0-0-0-0-0------------------------|

G|----------------------------------------------------------------|
D|----------------------------------------------------------------|
A|----------------2-----2-2-----------------------3-3-3-3-3--2--0-|
E|3-3%%%3-3-----------------------0-----0-0-----------------------|

G|----------------------------------------------------------------|
D|----------------------------------------------------------------|
A|----------------2-------2---------------------------------------|
E|3-3%%%3-3----------------------0-0-0-0-0--------8-------8\------|

G|----------------------------------------------------------------|
D|----------------------------------------------------------------|
A|----------------------------Pause......-------------------------|
E|3\--------------------------------------------------------------|

Verse5
G|----------------------------------------------------------------|
D|----------------------------------------------------------------|
A|--------2-2-2-2-3-3-3-3-5-5-5-5---------2-2-2-2-3-3-3-3-5-5-5-5-|
E|3-3-3-3-------------------------3-3-3-3-------------------------|

G|----------------------------------------------------------------|
D|----------------------------------------------------------------|
A|------------------------5---------------2---2-2-3---3-3-5---5-5-|
E|3----3-3-2------0---------------3---3-3-------------------------|

G|----------------------------------------------------------------|
D|----------------------------------------------------------------|
A|--------2-2-2-2-3-3-3-3-5-5-5-5---------2-2-2-2-3-3-3-3-5-5-5-5-|
E|3-3-3-3-------------------------3-3-3-3-------------------------|

G|----------------------------------------%%%%%%%%%%%%%%%%%%%%----|
D|----------------------------------------%%%%%%%%%%%%%%%%%%%%----|
A|5-5-5-5-5-5-5-5-5-5-5-5-5---5---5-------%%%%%% PAUSE %%%%%%%-3/-|
E|------------------------------------3\--%%%%%%%%%%%%%%%%%%%%----|

Chorus4
G|--------------------------------9-----W---W-9-------------------|
D|------------9-T-W-----T---9-T-W-----------------T-----T-W-----W-|
A|T-----T---T-----------------------------------------------------|
E|----------------------------------------------------------------|

G|--------------------------------9-----W---W-9-------------------|
D|------------9-T-W-----T---9-T-W---------------W-T-----T-W---T---|
A|T-----T---T-----------------------------------------------------|
E|----------------------------------------------------------------|

Ending	(those are fourteen and sixteen...)
G|----------------------------------------16----------------------|
D|------------4---4-----4-7-5-4-4-------14----14\-----------------|
A|--------5-5---5-----5-----------7---------------3-----3-2---0---|
E|3-----3---------------------------------------------------------|

G|----------------------------------------16----------------------|
D|------------4---4-----4-7-5-4-4-------14----14\-----------------|
A|--------5-5---5-----5-----------7---------------3-------2-------|
E|3-----3---------------------------------------------------------|

G|----------------------------------------------------------------|
D|--------5-------4---2---0---------------9-----------------------|
A|--------------------------------7-------------------7---5-------|
E|3-----------------------------------------------8---------------|

G|----------------------------------------------------------------|
D|----------------------------------------------------------------|
A|--------------------5---5-----------------------3---3---5-------|
E|3-------3-----------------------0-------------------------------|

G|----------------------------------------------------------------|
D|----------------------------------------------------------------|
A|----------------------------------------------------------------|
E|3---------------------------------------------------------------|
            
Submit corrections


        A Better Place A Better Time lessons Hard to play? Try these video lessons and learn fast A Better Place A Better Time lessons
        
↑ Back to top | Tablatures and chords for acoustic guitar and electric guitar, ukulele, drums are parodies/interpretations of the original songs. You may use it for private study, scholarship, research or language learning purposes only