» » »

Stray Cats - Stray Cat Strut Bass

Artists:  A B C D E F G H I J K L M N O P Q R S T U V W X Y Z # 

Stray Cat Strut Bass

(ver. 3) Click to play this song!
Stray Cats
 Rating:
4/5 (4 votes)


 Stray Cat Strut lessons Tabs too difficult? Try these video lessons and learn fast
 
                Stray Cats - Stray Cat Strut
Tuning (E, A, D, G)

We tabbed this from sheet music.. Hope you likey!! :D

Intro
G|---------------------||-----------------------------|
D|---------------1-----||----10-----8------6------5---|
A|-----------------3---||-----------------------------|
E|-8-8-7-6-4-3-1-------||--8---8--6---6--4---4--3---3-| x's 2

G|---------------------|
D|---------------------|
A|---------------------|
E|--8-8--6-6--4-4--3-3-| x's 4

Verse
G|-------------------------------------|
D|-------------------------------------|
A|-----5-6-9-10-5-6--------------------|
E|-8-8--------------8-8--6-6--4-4--3-3-| x's 2

G|----------------------|
D|----------------------|
A|-----5-6-9-10-5-6-----|
E|-8-8--------------8\\-|

G|---------------------|       |-----|
D|---------------------|       |-----|
A|--8-8--6-6--4-4--3-3-|       |-8\\-|
E|---------------------| x's 3 |-----|

G|---------------------|
D|---------------------|
A|---------------------|
E|--8-8--6-6--4-4--3-3-| x's 2

Guitar Solo 1
G|-------------------------------------|       
D|-------------------------------------|       
A|-----5-6-9-10-5-6--------------------|       
E|-8-8--------------8-8--6-6--4-4--3-3-| x's 2 

G|----------------------|
D|----------------------|
A|-----5-6-9-10-5-6-----|
E|-8-8--------------8\\-|

Chorus
G|-----------------------------------|
D|---6-5-----------------------------|
A|-8-----6-8-6-5-----6-5-------5-6-8-|
E|---------------9-8-----6-8-6-------|

G|-----------------------------------|
D|---6-5-----------------------------|
A|-8-----6-8-6-5-3-5-3-2-0--0-1-2-(3)|
E|-------------------------3---------|

G|---------------------|       |-----|
D|---------------------|       |-----|
A|---------------------|       |-----|
E|--8-8--6-6--4-4--3-3-| x's 3 |-8\\-|

Bridge
G|---------------------|
D|---------------------|
A|---------------------|
E|--8-8--6-6--4-4--3-3-| x's 2

G|-----------------------------------|
D|-----------------------------------|
A|-----5-5-6-6-8-8-9-9-10-10-5-5-6-6-|
E|-8-8-------------------------------|

G|------------------------------------|
D|-------------------9-9-7-7-------8-8|
A|-----6-6-10-10-6-6---------10-10----|
E|-8-8--------------------------------|

G|------------------------------------|
D|-10-10-8-8--------------------------|
A|-----------10-10-6-6-----6-6-5-5-6-6|
E|---------------------8-8------------|

G|--------------------------------|
D|--------------------------------|
A|-------------------------5-5----|
E|-8-8-6-6-3-3-6-6-8-8-6-6-----7-7|

G|---------------------|       |-----|
D|---------------------|       |-----|
A|---------------------|       |-----|
E|--8-8--6-6--4-4--3-3-| x's 3 |-8\\-|


Chorus
G|-----------------------------------|
D|---6-5-----------------------------|
A|-8-----6-8-6-5-----6-5-------5-6-8-|
E|---------------9-8-----6-8-6-------|

G|-----------------------------------|
D|---6-5-----------------------------|
A|-8-----6-8-6-5-3-5-3-2-0--0-1-2-(3)|
E|-------------------------3---------|

G|---------------------|       |-----|
D|---------------------|       |-----|
A|---------------------|       |-----|
E|--8-8--6-6--4-4--3-3-| x's 3 |-8\\-|


Outro
G|-----------------------------------------|
D|---------------1-------------------------|
A|-----------------3----------0-2-3--3-(3)-|
E|-8-8-7-6-4-3-1------------3--------------|
            
Submit corrections



        Stray Cat Strut lessons Hard to play? Try these video lessons and learn fast Stray Cat Strut lessons
        
↑ Back to top | Tablatures and chords for acoustic guitar and electric guitar, ukulele, drums are parodies/interpretations of the original songs. You may use it for private study, scholarship, research or language learning purposes only