Home » S » Story Of The Year »

Story Of The Year - The Ghost Of You And I Bass

Artists:  A B C D E F G H I J K L M N O P Q R S T U V W X Y Z # 

The Ghost Of You And I Bass

(ver. 1) Click to play this song!
Story Of The Year
 Rating:
4/5 (4 votes)
                This is my Tab to the song "The Ghost Of You And I" by Story Of The Year.
This song is amazing, that's why I made this tab. I hope, it is all correct. 
Please rate it and enjoy!

Intro (0:09)
Gb|----------------|----------------|
Db|----------------|----------------|
Ab|----------------|3~~~~~~~5~~~~~~~|
Eb|0~~~~~~~~~~~~~~~|----------------|
   F                  H       H

Main Riff                                       Fill 1
Gb|----------------|                            Gb|----------------|
Db|------5-4--5-4--|                            Db|----------------|
Ab|777-57-7-55-7-5-| 8x              then:      Ab|7~~~~~~~~~~~~~~~|
Eb|---7------------|                            Eb|----------------|
   SSSSSSSSSSSSSSE                                 F

Verse
Gb|----------------|----------------|----------------|----------------|
Db|----------------|----------------|----------------|----------------|
Ab|----------------|----------------|3333333333333333|5555555555555555| 2x
Eb|0000000000000000|3333333333333333|----------------|----------------|
   SSSSSSSSSSSSSSSS SSSSSSSSSSSSSSSS SSSSSSSSSSSSSSSS SSSSSSSSSSSSSSSS

Gb|----------------|
Db|----------------|
Ab|7~~~~~~~~~~~----|
Eb|------------12\~|
   H.          Q

Chorus
Gb|----------------|----------------|----------------|----------------|
Db|----------------|----------------|----------------|----------------|
Ab|----------------|----------------|3333333333333333|555555555~~~5~~~| 
Eb|0000000000000000|3333333333333333|----------------|----------------|
   SSSSSSSSSSSSSSSS SSSSSSSSSSSSSSSS SSSSSSSSSSSSSSSS SSSSSSSSH   H

Gb|----------------|----------------|----------------|----------------|
Db|----------------|----------------|----------------|----------------|
Ab|----------------|----------------|3333333333333333|5555555555555555| 
Eb|0000000000000000|3333333333333333|----------------|----------------|
   SSSSSSSSSSSSSSSS SSSSSSSSSSSSSSSS SSSSSSSSSSSSSSSS SSSSSSSSSSSSSSSS

Fill 2
Gb|----------------|
Db|----------------|
Ab|----------------|
Eb|0~~~~~~~~~~~~~~~|
   F

Verse
Chorus

Chorus Part 2
Gb|----------------|----------------|
Db|----------------|----------------|
Ab|3333333333333333|5555555555555555|
Eb|----------------|----------------|
   SSSSSSSSSSSSSSSS SSSSSSSSSSSSSSSS

Bridge
Gb|----------------|----------------|----------------|----------------|
Db|----------------|----------------|----------------|----------------|
Ab|----------------|----------------|3333------------|5555------------|
Eb|0000------------|0000------------|----------------|----------------|
   SSSSH.           SSSSH.           SSSSH.           SSSSH.

Gb|----------------|----------------|----------------|----------------|
Db|----------------|----------------|----------------|----------------|
Ab|----------------|----------------|3333333333333333|5555555555555555| 
Eb|0000000000000000|3333333333333333|----------------|----------------|
   SSSSSSSSSSSSSSSS SSSSSSSSSSSSSSSS SSSSSSSSSSSSSSSS SSSSSSSSSSSSSSSS

Gb|----------------|----------------|
Db|----------------|----------------|
Ab|----------------|----------------|
Eb|777777777777~~~~|~~~~~~~~~~~~~~~~|
   SSSSSSSSSSSQ     F

Main Riff (7x)

Main Riff Variation
Gb|----------------|------4445557799|                   
Db|---------4445577|555777----------|           
Ab|777555777-------|----------------|
Eb|----------------|----------------|   
   SSSSSSSSSSSSSSSS SSSSSSSSSSSSSSSS

Bridge 2
Gb|----------------|----------------|----------------|----------------|
Db|----------------|----------------|----------------|----------------|
Ab|----------------|----------------|3~~~~~~~~~~~~~~~|5~~~~~~~~~~~----|
Eb|0~~~~~~~~~~~~~~~|3~~~~~~~~~~~~~~~|----------------|------------12\~|
   F                F                F                H. 

Chorus
Chorus Part 2
Main Riff (3x)

Fill 3
Gb|----------------|
Db|----------------|
Ab|----------------|
Eb|0000000000000000|
   SSSSSSSSSSSSSSSS

Outro
Gb|----------------|----------------|                   Gb|----------------|
Db|------5---------|------5-------57|                   Db|----------------|
Ab|----57-5--------|----57-5----57--| 2x then:          Ab|----------------|
Eb|0-0------0000-0-|0-0------000----|                   Eb|0-0/~~----------|
   E E SSSE SSSE E  E E SSSE SSSSSSS                       E Q

                                                           
            
Submit corrections

↑ Back to top | Tablatures and chords for acoustic guitar and electric guitar, ukulele, drums are parodies/interpretations of the original songs. You may use it for private study, scholarship, research or language learning purposes only