» » »

Story Of The Year - Ten Years Down Bass

Artists:  A B C D E F G H I J K L M N O P Q R S T U V W X Y Z # 

Ten Years Down Bass

(ver. 1) Click to play this song!
Story Of The Year
 Rating:
4/5 (4 votes)

 Ten Years Down lessons Tabs too difficult? Try these video lessons and learn fast
 
                0:10
F|---------------------------------------------------------------------|
C|---------------------------------------------------------------------|
G|-6---8-8-------------------------6---8-8-------------------------6---|
C|---------------------------------------------------------------------|

F|-----------------------------------------------------------------|
C|-----------------------------------------------------------------|
G|-4-4-------------------------4---6-6---------------4-------4-6---|
C|-----------------------------------------------------6-3-6-------|
0:21
F|-----------------------------------------------------------------|
C|-----------------------------------------------------------------|
G|-8-8-------------------------6---8-8-----------------------8-6---|
C|-----------------------------------------------------------------|

F|-----------------------------------------------------------------|
C|-----------------------------------------------------6-----------|
G|-4-4-------------------------4---6-6-------------8-6---4-8-6-4-3-|
C|-----------------------------------------------------------------|

0:32
F|-----------------------------------------------------------------|
C|-----------------------------------------------------------------|
G|-4-4-4-4-4-4-4-4-4-4-4-4-4-4-4-4-6-6-6-6-6-6-6-6-6-6-6-6-6-6-6-6-|
C|-----------------------------------------------------------------|

F|-------------------------------------------------------------------------|
C|-------------------------------------------------------------------------|
G|-4-4-4-4-4-4-4-4-4-4-4-4-4-4-4-4-6-6-6-6-6-6-6-6/18-18-18-18-18-18-18-18-|
C|-------------------------------------------------------------------------|

0:42
F|-----------------------------------------------------------------|
C|-----------------------------------------------------------------|
G|-8-8-8-8-----4-----4-4-4-4-4-4-4-------------6-----6-6-6-6-4-5-6-|
C|---------------------------------6-----6-------------------------|

F|-----------------------------------------------------------------|
C|-----------------------------------------------------------------|
G|-8-----8-----4-----4-4-4-4-4-4-4-6-6-6-6-6-6-6-6-6-6-6-6-6-6-6-6-|
C|-----------------------------------------------------------------|

0:54
F|-----------------------------------------------------------------|
C|-----------------------------------------------------------------|
G|-8---8-8-----4-----4-4-4-4-4-4-4-------------6-----6-6-6-6-4-5-6-|
C|---------------------------------6---6-6-------------------------|

F|-----------------------------------------------------------------|
C|-----------------------------------------------------------------|
G|-8-----8-----4-----4-4-4-4-4-4-4-6-6-6-6-6-6-6-6-6-6-6-6-6-6-----|
C|-------------------------------------------------------------1-1-|

1:04
F|-----------------------------------------------------------------|
C|-----------------------------------------------------------------|
G|---------------------------------8-8-----------------------------|
C|-3-3---------------------------------------------------------3-\-|

F|-----------------------------------------------------------------|
C|-----------------------------------------------------------------|
G|-------------------------------------------------------------6---|
C|-3-3-------------------------1---3-3-------------------1-3-1-----|

1:15
F|-----------------------------------------------------------------|
C|-----------------------------------------------------------------|
G|-4-4-------------------------4---6-6-----------------------------|
C|---------------------------------------------------------6-5-1---|

1:21
F|-----------------------------------------------------------------|
C|-----------------------------------------------------------------|
G|-------------------------------------------------------------6-6-|
C|-3-3-3-3-3-3-3-3-3-3-3-3-3-3-1-1-3-3-3-3-3-3-3-3-3-3-3-3-3-3-----|

F|-----------------------------------------------------------------|
C|-----------------------------------------------------------------|
G|-4-4-4-4-4-4-4-4-4-4-4-4-4-4-3-3-6-6-6-6-6-6-6-6-6-6-6-6-6-6-6-\-|
C|-----------------------------------------------------------------|

F|-----------------------------------------------------------------|
C|-----------------------------------------------------------------|
G|-4-4-4-4-4-4-4-4-4-4-4-4-4-4-4-4-6-6-6-6-6-6-6-6-6-6-6-6-6-6-6-6-|
C|-----------------------------------------------------------------|

F|-------------------------------------------------------------------------|
C|-------------------------------------------------------------------------|
G|-4-4-4-4-4-4-4-4-4-4-4-4-4-4-4-4-----------------------------------------|
C|---------------------------------1-1-1-1-1-1-1-1/13-13-13-13-13-13-13-13-|

1:42
F|-----------------------------------------------------------------|
C|-----------------------------------------------------------------|
G|-8-8-8-8-----4-----4-4-4-4-4-4-4-------------6-----6-6-6-6-4-5-6-|
C|---------------------------------6-----6-------------------------|

F|-------------------------------------------------------------------|
C|-------------------------------------------------------------------|
G|-8-----8-----4-----4-4-4-16-16-4-4-6-6-6-6-6-6-6-6-6-6-6-6---------|
C|-----------------------------------------------------------6-5-1-1-|

F|-----------------------------------------------------------------|
C|-----------------------------------------------------------------|
G|-8---8-8-----4-----4-4-4-4-4-4-4-------------6-----6-6-6-6-4-5-6-|
C|---------------------------------6---6-6-------------------------|

F|-----------------------------------------------------------------|
C|-----------------------------------------------------------------|
G|-8-----8-----4-----4-4-4-4-4-4-4-6-6-6-6-6-6-6-6-6-6-6-6-6-6-----|
C|-------------------------------------------------------------1---|

2:04
F|-----------------------------------------------------------------|
C|-----------------------------------------------------------------|
G|-----------------------------------------------------------------|
C|-3-3---------1---3-3---------1---3-3---------1---3-3---------1---|

F|-----------------------------------------------------------------|
C|-----------------------------------------------------------------|
G|-----------------------------------------------------------------|
C|-3-3---------1---3-3---------1---3-3---------1---3-3---------1---|

2:15
F|------------------------------------------------------------------|
C|o-----------------------------------------------------------------|
G|o-8-8-8-8-8-8-8-8-8-8-8-8-8-8-8-8---------------------------------|
C|----------------------------------6-6-6-6-6-6-6-6-6-6-6-6-6-6-6-6-|

F|------------------------------------------------------------------|
C|-----------------------------------------------------------------o|
G|-4-4-4-4-4-4-4-4-4-4-4-4-4-4-4-4-6-6-6-6-6-6-6-6-6-6-6-6-6-6-6-6-o|
C|------------------------------------------------------------------|

2:37
F|-------------------------------------------------------------------|
C|o-----------------------------------------------------------------o|
G|o-4-4-4-4-4-4-4-4-4-4-4-4-4-4-4-4-6-6-6-6-6-6-6-6-6-6-6-6-6-6-6-6-o|
C|-------------------------------------------------------------------|

2:47
F|-----------------------------------------------------------------|
C|-----------------------------------------------------------------|
G|-----------------------------------------------------------------|
C|-3-3-----------------------------3-3-------------------------3-\-|

2:53
F|-----------------------------------------------------------------|
C|-----------------------------------------------------------------|
G|-------------4-----4-4-4-4-4-4-4-------------6-----6-6-6-6-4-5-6-|
C|-3-----3-------------------------6-----6-------------------------|

F|-------------------------------------------------------------------|
C|-------------------------------------------------------------------|
G|-------------4-----4-4-4-16-16-4-4-6-6-6-6-6-6-6-6-6-6-6-6-6-6-6-\-|
C|-3-----3-----------------------------------------------------------|

3:04
F|-----------------------------------------------------------------|
C|-----------------------------------------------------------------|
G|-------------4-----4-4-4-4-4-4-4-------------6-----6-6-6-6-4-5-6-|
C|-3-----3-------------------------6-----6-------------------------|

F|-----------------------------------------------------------------|
C|-----------------------------------------------------------------|
G|-------------4-----4-4-4-4-4-4-4-6-6-6-6-6-6-6-6-6-6-6-6-6-6-6-6-|
C|-3-----3---------------------------------------------------------|

3:15
F|-----------------------------------------------------------------|
C|-----------------------------------------------------------------|
G|-------------4-----4-4---4-4-4-4---------------------------------|
C|-3-----3-------------------------6-----6-----1-----1-1---1-1-1-1-|

F|-----------------------------------------------------------------|
C|-----------------------------------------------------------------|
G|-------------4-----4-4---4-4-4-4---------------------------------|
C|-3-----3-------------------------1-1-1-1-1-1-1-1-1-1-1-1-1-1-1-1-|

3:25
F|-----------------------------------------------------------------|
C|-----------------------------------------------------------------|
G|-------------4-----4-4---4-4-4-4---------------------------------|
C|-3-----3-------------------------6-----6-----1-----1-1---1-1-1-1-|

F|-----------------------------------------------------------------|
C|-----------------------------------------------------------------|
G|-------------4-----4-4---4-4-4-4-6-6-6-6-6-6-6-6-6-6-6-6-6-6-6-6-|
C|-3-----3---------------------------------------------------------|

F|-----------------------------------------|
C|-----------------------------------------|
G|-6-6-6-6-6-6-6-6/18-18-18-18-18-18-18-18-|
C|-----------------------------------------|

3:39
F|-----------------------------------------------------------------|
C|-------6-5-------------6-5-------------6-5-------------6-5-------|
G|-----------6---------------6---------------6---------------6-----|
C|-3-3---------1---3-3---------1---3-3---------1---3-3---------1---|

F|---------------------------------------------------------------------|
C|-------6-5-------------6-5-------------6-5-------------6-5-----------|
G|-----------6---------------6---------------6---------------6---------|
C|-3-3---------1---3-3---------1---3-3---------1---3-3---------1---3-3-|
            
Submit corrections


        Ten Years Down lessons Hard to play? Try these video lessons and learn fast Ten Years Down lessons
        
↑ Back to top | Tablatures and chords for acoustic guitar and electric guitar, ukulele, drums are parodies/interpretations of the original songs. You may use it for private study, scholarship, research or language learning purposes only