Home » S » Story Of The Year »

Story Of The Year - Tell Me Tabs

Artists:  A B C D E F G H I J K L M N O P Q R S T U V W X Y Z # 

Tell Me Tabs

(ver. 1) Click to play this song!
Story Of The Year
 Rating:
4/5 (4 votes)
                   
Main riff:
  On the intro, PM twice on the E on the fourth repeat. Otherwise, go to the other adjustment.

// Guitar One
D#||--------------------------------------| x3
A#||--------------------------------------|
F#||--------------------------------------|
C#||--------------------------------------|
G#||--0h-2---2--2--0--2--0--5--4--2--0----|
C#||--0h-2---2--2--0--2--0--5--4--2--0----|


D#||-----------------------------------|
A#||-----------------------------------|
F#||-----------------------------------|
C#||-----------------------------------|
G#||--0h-2---5--4--2--0--5--4--2--0----|
C#||--0h-2---5--4--2--0--5--4--2--0----|

// Guitar Two
D#||--12---|--10---|--14---|-12---|
A#||--15b--|--13b--|--17b--|-15b--|
F#||-------|-------|-------|------|
C#||-------|-------|-------|------|
G#||-------|-------|-------|------|
C#||-------|-------|-------|------|

                     * Not sure on this note. Let me know what you think it is.
D#||--12---|--10---|--18---|
A#||--15b--|--13b--|--21b--|
F#||-------|-------|-------|
C#||-------|-------|-------|
G#||-------|-------|-------|
C#||-------|-------|-------|



Verse:
 Its just these two chords.

D#||-------|
A#||-------|
F#||-5--7--|
C#||-5--7--|
G#||-3--5--|
C#||-------|

Prechorus:

 Just lead up with a D chord.

Chorus:

D#||--------------------|-------------|
A#||--------------------|-------------|
F#||--------------------|-------------|
C#||-2--5--0--7--5h4h0--|-2--5--0--7--|
G#||-2--5--0--7--5h4h0--|-2--5--0--7--|
C#||-2--5--0--7--5h4h0--|-2--5--0--7--|

Bridge Part One:

// Guitar One 
D#||----------------------|----------------------|
A#||-----------1--0-------|-----------0----------|
F#||--------0----------0--|--------0-------------|
C#||-----2----------------|-----2----------------|
G#||--3-------------------|--3-------------------|
C#||----------------------|----------------------|

                             * Not sure here either.
D#||----------------------|------3-----3h53---3--|
A#||-----------1--0-------|----3----3-------3----|
F#||--------0----------0--|--2-------------------|
C#||-----2----------------|----------------------|
G#||--3-------------------|----------------------|
C#||----------------------|----------------------|

// Guitar Two 
 Palm mute C and D when it matches the chord plucked out on guitar one.

Bridge Part Two:

 // Guitar One
D#||-------------------------|
A#||-------------------------|
F#||-------------------------|
C#||--------5s7--------7s9---|
G#||--3-3-3------5-5-5-------|
C#||-------------------------|

 // Guitar Two
D#||-------------------------|
A#||--------9s10-------10s12-|
F#||--5-5-5------7-7-7-------|
C#||-------------------------|
G#||-------------------------|
C#||-------------------------|

Prechorus 2:

 Just lead up with a 

Song Order:
----------
Main Riff
Verse
Prechorus
Chorus
Verse
Prechorus
Chorus
Main Riff
Bridge Part One
Bridge Part Two
Chorus
Main Riff
            
Submit corrections

↑ Back to top | Tablatures and chords for acoustic guitar and electric guitar, ukulele, drums are parodies/interpretations of the original songs. You may use it for private study, scholarship, research or language learning purposes only