Home » S » Story Of The Year »

Story Of The Year - Taste The Poison Tabs

Artists:  A B C D E F G H I J K L M N O P Q R S T U V W X Y Z # 

Taste The Poison Tabs

(ver. 2) Click to play this song!
Story Of The Year
 Rating:
4/5 (4 votes)
                Story of the Year
In the Wake of Determination
Taste the Poison
Composed by, Ryan Philips and Phill Sneed

Tuning (eb Bb Gb Db Ab Eb) Half Step down
x=dont play
(x#)=play certain amount
*=Pinch Harmonics
.=Palm Mute
()=Harmonic
^=Bend up

I am still working on the second part of the solo but I will have it soon most of this 
pretty easy to figure out but in some place you do have to listen for the rythem. If you 
any questions or something is wrong post it on here and I will get back to you. Have fun!

                           Intro(clean)
e------------------------------------------------------------------------------------|
B------------------------------------------------------------------------------------|
G--9--12--16--11--12--11--9--12--16--11--------------------55555--------77777--------|
D--x---x---x---x---x---x---x---x--x---x--Ring--22222-------55555--------77777--------|
A--7--10--14--9--10--9--7--10--14--7----------22222-(X4)--33333-(X4)----55555--------|(X4)
E------------------------------------------------------------------------------------|

		Verse
e------------------------------------------------------------------------------------|
B------------------------------------------------------------------------------------|
G--55---5*5*5*5*--------55555-------55---5*5*5*5*---------55555--------77777---------|
D--55---5*5*5*5*--(X8)--55555--------55---5*5*5*5*--(X8)-- 55555--------77777--------|
A----------------------33333-(X4)------------------------33333-(X4)---55555-(X4)-----|
E------------------------------------------------------------------------------------|
      . .                   			                    . .
		End of Verse
e-----------------|
B--7--------------|
G--7--------------|
D--7--------------|
A--5-(X11)--------|
E-----------------|
		Chorus
e-----------------------------------------------------|
B-----------------------------------------------------|
G--------5-5--7-7--5-5--------5-5--7-7----------------|
D--2-2--5-5--7-7--5-5--2-2--5-5--7-7--Ring------------|
A--2-2--3-3--5-5--3-3--2-2--3-3--5-5------------------|
E-----------------------------------------------------|

              Riff after 1st chorus
e--------------------|
B--------------------|
G--------------------|
D--------------------|
A-----0--1--2--0-----|
E--0-----------------|

     		2nd Verse
e-----------------------------------------------------------------|
B-----------------------------------------------------------------|
G--55---5*5*5*5*--------55555--------77777------------------------|
D--55---5*5*5*5*--(X8)-- 55555--------77777-----------------------|
A-----------------------33333-(X4)- 55555-(X4)--------------------|
E-----------------------------------------------------------------|
     . .                   	^some riff hard to hear in here

		End of Verse
e-----------------|
B--7--------------|
G--7--------------|
D--7--------------|
A--5-(X11)--------|
E-----------------|

		Chorus 2
e------------------------------------------------------------------------------------|
B------------------------------------------------------------------------------------|
G-------5-5--7-7--5-5--------5-5--7-7--5-5---------5-5--7-7--5-5--7-7----------------|
D--2-2--5-5--7-7--5-5--2-2--5-5--7-7--5-5----2-2--5-5--7-7--5-5--7-7-----------------|
A--2-2--3-3--5-5--3-3--2-2--3-3--5-5--3-3----2-2--3-3--5-5--3-3--5-5-//Pick Slide//--|
E------------------------------------------------------------------------------------|

Bridge
e-------------------------------------------------------------------------------------|
B-------------------------------------------(9)-----(9)-------------------------------|
G---------77--5555--7777--------5------------(9)------(9)------5-5-5-5--7-7-7-7-------|
D--2222--77--5555--7777--------5-----------------------------5-5-5-5--7-7-7-7---------|
A--2222--55--3333--5555--(X4)--3-Ring-------------------------3-3-3-3--5-5-5-5--------|
E-------------------------------------------------------------------------------------|


2nd Guitar plays during Solo with slider on fingerboard pickup
e-----------------------------------------|
B-----------------------------------------|
G---------77--5555--7777------------------|
D--2222--77--5555--7777-------------------|
A--2222--55--3333--5555-------------------|
E-----------------------------------------|

First part of Solo I am still working on second part
e------------------------------------------------------------------------------------|
B--17----17^---17----17^----17-----17^---17h20 (X?)--20-20-20-20^ (X2)-20-20-20------|
G--19----19^---19----19^----19-------------------------------------------------21----|
D------------------------------------------------------------------------------------|
A------------------------------------------------------------------------------------|
E------------------------------------------------------------------------------------|


		Outro
e----------------------------------------------------------------------------------|
B----------------------------------------------------------------------------------|
G---------77--5555--7777----------5-5-5---7-7-7------------------------------------|
D--2222--77--5555--7777----------5-5-5---7-7-7------22222--------------------------|
A--2222--55--3333--5555---(X8)---3-3-3---5-5-5------22222--(X8)--------------------|
E----------------------------------------------------------------------------------|
            
Submit corrections

↑ Back to top | Tablatures and chords for acoustic guitar and electric guitar, ukulele, drums are parodies/interpretations of the original songs. You may use it for private study, scholarship, research or language learning purposes only