» » »

Story Of The Year - Taste The Poison Bass

Artists:  A B C D E F G H I J K L M N O P Q R S T U V W X Y Z # 

Taste The Poison Bass

(ver. 1) Click to play this song!
Story Of The Year
 Rating:
4/5 (4 votes)

 Taste The Poison lessons Tabs too difficult? Try these video lessons and learn fast
 
                -------------------------------------------------------------------------------
			     Taste The Poison - Story of the Year
-------------------------------------------------------------------------------


Tuning: D,A,D,G

Intro:
G|-------------------------------------------------------------|
D|---------111111--444444----------------111111--444444--------|
A|--222222----------------444444--222222-----------------4~----|
D|-------------------------------------------------------------|

0:12
G|------------------------------------------------------------------|
D|------------------------------------------------------------------|
A|----------------------------22222--22222--44444--44444------------|
E|-11111--11111--11111--11111---------------------------------------|


0:21
G|-----------------------------------------------------------------|
D|-----------------------------------------------------------------|
A|----------------------------------22222--22222--22222--22h4p22---|
E|--11--11--11--11--11--11--11--11---------------------------------|


G|-----------------------|    
D|--------------4-3------|    
A|-----------2------4----|X4  
E|--1141--11-------------|    

0:45
G|------------------------------------------------------------|
D|------------------------------11-11-11-11--4-4--------------|
A|--22222--22222--22222--44444-------------------2-2----------|
E|------------------------------------------------------------|


0:54
G|-------------------------------------------------------------------|
D|-------------------------------------------------------------------|
A|-------------------444444-222222------------------4444444-2~-------|
E|--1111111-4444444----------------1111111-4444444-------------------|

1:08
G|--------6-8-4~--6~----7h8p7h8p7h8p7h8p7h9p8h9p8-10-8-----|
D|--1~-----------------------------------------------------|
A|---------------------------------------------------------|
E|---------------------------------------------------------|
dont think its right but its something like that

1:17
G|-----------------------|    
D|--------------4-3------|    
A|-----------2------4----|X4  
E|--1141--11-------------|    

G|----------------------------------------------------|
D|------------------------------11--------------------|
A|--22222--22222--22222--44444-----44-22-------2-2----|
E|---------------------------------------66-44--------|

1:35
G|-------------------------------------------------------------------|
D|-------------------------------------------------------------------|
A|-------------------444444-222222------------------4444444-2-2------|
E|--1111111-4444444----------------1111111-4444444-------------------|

G|----------------------------------------------------|
D|----------------------------------------------------|
A|-------------------444444-22222222222--44444444-----|
E|--1111111-4444444-----------------------------------|

1:58
G|------------------------|
D|------------------------|
A|-------2222------4444---|X4  followed by 2~ on A String
E|--1111------4444--------|

2:13
G|-----------------------------------------------|
D|-----------------------------------------------|
A|------------------10h11--9---------------------|
E|--11-----11------------------------------------|

G|-----------------------------------------------------------------|
D|----------------------------------------------------4-6666-------|
A|----------------------------------222222222222222----------------|
E|--11--11--11--11--11--11--11--11---------------------------------|


G|------------------------|
D|------------------------|
A|-------2222------4444---|X12  
E|--1111------4444--------|

3:26
G|---------------------------| G|----------------|
D|---------------------------| D|----------------|
A|--2222222222---4444444-----| A|----------------|X8
E|-------------4-------------| E|---11111--------|  

| /  slide up
| \  slide down
| h  hammer-on
| p  pull-off
| ~  vibrato
| +  harmonic
| x  Mute note
===============================================================================
            
Submit corrections


        Taste The Poison lessons Hard to play? Try these video lessons and learn fast Taste The Poison lessons
        
↑ Back to top | Tablatures and chords for acoustic guitar and electric guitar, ukulele, drums are parodies/interpretations of the original songs. You may use it for private study, scholarship, research or language learning purposes only